PrimaNota.ru - самый крупный в мире бесплатный архив песенных текстов, аккордов, табулатур и нот


Greenleaf - Humans - таба, видео

Регистрация Запомнить меня
Войти через:  Facebook Google Twitter Vk Yandex Mail.ru

Greenleaf - Humans - таба, видео

Печатать
Просмотров: 107
-------------------------------------------------------------------------------
                             Humans - Greenleaf
-------------------------------------------------------------------------------
Tabbed by: Fiachra Woods
E-mail: Fiachrawoodsgti@gmail.com

Tuning: CFBbD#Gc

INTRO
c |-----------------------------|--------------------------------|
G |-----------------------------|--------------------------------|
D#|-----------------------------|--------------------5-7-7br-5---|
Bb|-----------------------------|----------------5-7-----------7-|
F |----------5-/7----------3p-2-|----------5-/-7-----------------|
C |-3-/5-3-5------3-/5-3-5------|-3-/5-3-5-----------------------|
                                 
VERSE I
c |-----------------------------|-----------------------------|-----------------|
G |-----------------------------|-----------------------------|-----------------|
D#|-----------------------------|-----------------------------|-----5-7-7br-5---|
Bb|-----------------------------|-----------------------------|-5-7-----------7-|
F |----------5-/7----------3p-2-|-3h-5-3h-5-5-5-3h-5-3h-5-5-5-|-----------------|
C |-3-/5-3-5------3-/5-3-5------|-----------------------------|-----------------|
                               x4                            x2

c |-----------------------------|--------------|
G |-----------------------------|--------------|
D#|-----------------------------|--9~----7~--7-|
Bb|-----------------------------|--9~----7~--7-|
F |----------5-/7----------3p-2-|--7~----5~--5-|
C |-3-/5-3-5------3-/5-3-5------|-(0)----------|
                               x2

CHORUS I
c |--------------------------------------------------------------------------------------|
G |--------------------------------------------------------------------------------------|
D#|-5-5------------------------------------5-5---------------------------------------5---|
Bb|-5-5-----------------------7--7------7--5-5----------------------------------5h-7---7-|
F |-3-3--0-2-3-/5--5-3-2------7--7----7-7--3-3-0-2-3-/5--5-3-2------3\-2-----------------|
C |----------------------3-/5-5-/5-3-/5-5----------------------3-/5------3-3-/5----------|

c |-----------------------------------------------------------------------------|
G |-----------------------------------------------------------------------------|
D#|-5-5------------------------------------5-5----------------------------------|
Bb|-5-5-----------------------7--7------7--5-5----------------------------------|
F |-3-3--0-2-3-/5--5-3-2------7--7----7-7--3-3-0-2-3-/5--5-3-2------3\-2--------|
C |----------------------3-/5-5-/5-3-/5-5----------------------3-/5------3-3-/5-|

c |-----------------------------|-----------------------------|
G |-----------------------------|-----------------------------|
D#|-----------------------------|-----------------------------|
Bb|-----------------------------|-----------------------------|
F |----------5-/7----------3p-2-|----------5-/7----------3p-2-|
C |-3-/5-3-5------3-/5-3-5------|-3-/5-3-5------3-/5-3-5------|

c |-----------------------------|-----------------------------|
G |-----------------------------|-----------------------------|
D#|-----------------------------|-----------------------------|
Bb|-----------------------------|-----------------------------|
F |----------5-/7----------3p-2-|----------5-/7----------3p-2-|
C |-3-/5-3-5------3-/5-3-5------|-3-/5-3-5------3-/5-3-5------|
  |                                                           |
  |                                                           |
  |                                                           |
  |                                                           |
  |                                                           | 
c |-----------------------------------------------------------|
G |-----------------------------------------------------------|
D#|---------5--------5----------------------------------------|
Bb|-/7~-5-7---7~-5-7---7-7-5-7--------------------------------|
F |----------------------------5p-3-----3br-------------------|
C |---------------------------------5-3------5\---------------|

VERSE II
c |-----------------------------|-----------------------------|------------------------|
G |-----------------------------|-----------------------------|------------------------|
D#|-----------------------------|-----------------------------|-----5-7-7b-7b-7br--5---|
Bb|-----------------------------|-----------------------------|-5-7------------------7-|
F |----------5-/7----------3p-2-|-3h-5-3h-5-5-5-3h-5-3h-5-5-5-|------------------------|
C |-3-/5-3-5------3-/5-3-5------|-----------------------------|------------------------|
                               x4                            x2

c |-----------------------------|--------------|
G |-----------------------------|--------------|
D#|-----------------------------|--9~----7~--7-|
Bb|-----------------------------|--9~----7~--7-|
F |----------5-/7----------3p-2-|--7~----5~--5-|
C |-3-/5-3-5------3-/5-3-5------|-(0)----------|
                               x2

CHORUS II
c |--------------------------------------------------------------------------------------|
G |--------------------------------------------------------------------------------------|
D#|-5-5------------------------------------5-5---------------------------------------5---|
Bb|-5-5-----------------------7--7------7--5-5----------------------------------5h-7---7-|
F |-3-3--0-2-3-/5--5-3-2------7--7----7-7--3-3-0-2-3-/5--5-3-2------3\-2-----------------|
C |----------------------3-/5-5-/5-3-/5-5----------------------3-/5------3-3-/5----------|

c |------------------------------------------------------------------------------------|
G |------------------------------------------------------------------------------------|
D#|-5-5------------------------------------5-5-----------------------------------------|
Bb|-5-5-----------------------7--7------7--5-5-----------------------------------------|
F |-3-3--0-2-3-/5--5-3-2------7--7----7-7--3-3-0-2-3-/5--5-3-2------3-\2---3-----------|
C |----------------------3-/5-5-/5-3-/5-5----------------------3-/5------3---5-5-5-5-5-|


c |----------------------------------------------------------|
G |----------------------------------------------------------|
D#|----------------------------------------------------------|
Bb|------------------------------------------------------5-7-|
F |-x-x-3-----------x-x-3-----------3---3-5-5-3-5-/7-5-7-----|
C |-x-x---5-5-5-5-5-x-x---5-5-5-5-5---5----------------------|

BREAK
c |----------------------------------------------------------------------------------------|
G |----------------------------------------------------------------------------------------|
D#|-5---------------5-------------------------5--------------5--------------5--------------|
Bb|---7-7-7-7p-5------7-7-7-7p-5----5---5-7-x---7-7-7-7p-5-----7-7-7-7p-5-----7-7-7-7p-5---|
F |--------------7---------------7----7--------------------7--------------5--------------7-|
C |----------------------------------------------------------------------------------------|

c |---------------------------------------------------------------------------|
G |---------------------------------------------------------------------------|
D#|-----------5--------------7br-5--------------7br-5-------------------------|
Bb|-5---5-7-x---7-7-7-7p-5---------7-7-7-7p-5---------7-7-7-7p-5---5---5-7-x--|
F |---7--------------------7------------------7------------------7---7--------|
C |---------------------------------------------------------------------------|

c |--------------------------------------------------------|
G |--------------------------------------------------------|
D#|-----------5--------------5--------------5--------------|
Bb|-5---5-7-x---7-7-7-7p-5-----7-7-7-7p-5-----7-7-7-7p-5---|
F |---7--------------------7--------------7--------------7-|
C |--------------------------------------------------------|

SOLO
c |--------------------------------------------------------------------------------------|
G |----8--------------------------------------------------8------------------------------|
D#|-7b---7b-7br-5~------5-----------5------------------7b---7-7-5h-7-5-5h-7-5------------|
Bb|-----------------5-7---7-7-x-5-7---7-7-x-7-7p-5p-0-------------------------7-5--------|
F |-------------------------------------------------------------------------------3-/5---|
C |------------------------------------------------------------------------------------5-|

c |-----------------------------------------------------------------------------------|
G |-------------------5--5--5----15b-15b-15b-15br-15br----13h-15p-13------------------|
D#|-------------------7b-7b-7b/------------------------14------------14-12h-14p-12----|
Bb|-------------5-7-5--------------------------------------------------------------14-|
F |------3-5-/7-----------------------------------------------------------------------|
C |-3h-5------------------------------------------------------------------------------|

c |-----------------------------------------------------------------------------------|
G |-13-----------13-----------13-----------10-----------------------------------------|
D#|----14p-12-------14p-12-------14-14-12b----12br-9----------------------------------|
Bb|-----------14-----------14------------------------10h-12p-10----12-10--------------|
F |-------------------------------------------------------------12-------10----10h-12-|
C |-------------------------------------------------------------------------12--------|

c |-----------------------------------------|
G |-----------------------------------------|
D#|-----------------------------------------|
Bb|---------------------------------10------|
F |-12-10----10---------------10-12----12~--|
C |-------12----12-10-8-10-12---------------|


BREAK 
c |----------------------------------------------------------------|
G |----------------------------------------------------------------|
D#|-5---------------5---------------5----------7b-7b-7br-5---5-5---|
Bb|---7-7-7-7p-5------7-7-7-7p-5------7-5h-7-7-------------7-----7-|
F |--------------7---------------7---------------------------------|
C |----------------------------------------------------------------|

c |-----------------------------------------------------------------|
G |-----------------------------------------------------------------|
D#|-5---------------5---------------7b-7br-5---7-7-5--7h-9p-7---7-5-|
Bb|---7-7-7-7p-5------7-7-7-7p-5-------------7----------------7-----|
F |--------------7---------------7----------------------------------|
C |-----------------------------------------------------------------|

c |-----------------------------------------------------------------|
G |-----------------------------------------------------------------|
D#|-5---------------5---------------7b-7br-7-5-x------5-5-----------|
Bb|---7-7-7-7p-5------7-7-7-7p-5-----------------5h-7-----7---------|
F |--------------7---------------7----------------------------------|
C |-----------------------------------------------------------------|

c |-----------------------------------------------------------------|
G |-----------------------------------------------------------------|
D#|-5---------------5---------------7br-5---------------------------|
Bb|---7-7-7-7p-5------7-7-7-7p-5----------7-7-7-7p-5----------------|
F |--------------7---------------7-------------------7--------------|
C |-----------------------------------------------------------------|

c |-----------------------------------------------------------------|
G |---------------------------------5~--8-5-------------------------|
D#|-5---------------5---------------7b~-----7-5-5-/7-5--------------|
Bb|---7-7-7-7p-5------7-7-7-7p-5-----------------------x-5h-7-------|
F |--------------7---------------7----------------------------------|
C |-----------------------------------------------------------------|

CHORUS/OUTTRO
c |--------------------------------------------------------------------------------------|
G |--------------------------------------------------------------------------------------|
D#|-5-5------------------------------------5-5---------------------------------------5---|
Bb|-5-5-----------------------7--7------7--5-5----------------------------------5h-7---7-|
F |-3-3--0-2-3-/5--5-3-2------7--7----7-7--3-3-0-2-3-/5--5-3-2------3\-2-----------------|
C |----------------------3-/5-5-/5-3-/5-5----------------------3-/5------3-3-/5----------|

c |-----------------------------------------------------------------------------|
G |-----------------------------------------------------------------------------|
D#|-5-5------------------------------------5-5----------------------------------|
Bb|-5-5-----------------------7--7------7--5-5----------------------------------|
F |-3-3--0-2-3-/5--5-3-2------7--7----7-7--3-3-0-2-3-/5--5-3-2------3\-2--------|
C |----------------------3-/5-5-/5-3-/5-5----------------------3-/5------3-3-/5-|


************************************

| /   slide up
| \   slide down
| h   hammer-on
| p   pull-off
| ~   vibrato
| +   harmonic
| x   Mute note
| b   Bend
| pb  Pre-bend
| br  Bend release
| pbr Pre-bend release
| brb Bend release bend

************************************
Добавлено: 24.12.2015
Другие материалы по этой песне:
  • Аккорды и текст

Страница создана 24.12.2015
http://primanota.ru/greenleaf/humans-chords.htm
Привет, Гость.
Предлагаем пройти революционный курс по гитаре.
Подарок от PrimaNota.Ru, забирай!