PrimaNota.ru - самый крупный в мире бесплатный архив песенных текстов, аккордов, табулатур и нот


Greenleaf - Equators - таба, видео

Регистрация Запомнить меня
Войти через:  Facebook Google Twitter Vk Yandex Mail.ru

Greenleaf - Equators - таба, видео

Печатать
Просмотров: 80
-------------------------------------------------------------------------------
                             Equators - Greenleaf
-------------------------------------------------------------------------------
Tabbed by: Fiachra Woods
E-mail: Fiachrawoodsgti@gmail.com

Tuning: CFBbD#Gc

INTRO
c |---------------------------------------------------------------------------|
G |---------------------------------------------------------------------------|
D#|--------14-12--------------------------------14-12-------------------------|
Bb|-12h-14-------14p-12-12-/14-----------12h-14-------14p-12-12h-14-----------|
F |----------------------------12-10-10\----------------------------12--------|
C |--------------------------------------------------------------------12-12\-|x2

c |-------------------------------------------------------------------------------|
G |-------------------------------------------------------------------------------|
D#|--------14-12-----------------------------------14-12-----------14br-12--------|
Bb|-12h-14-------14p-12p-0-12-/14-----------12h-14-------14p-12p-0---------14-14\-|
F |-------------------------------12-10-10\---------------------------------------|
C |-------------------------------------------------------------------------------|

c |---------------------------------------------------------------------------------|
G |---------------------------------------------------------------------------------|
D#|--------14-12-----------------------------------14-12----------------------------|
Bb|-12h-14-------14p-12p-0-12-/14-----------12h-14-------14p-12p-0-12h-14-----------|
F |-------------------------------12-10-10\-------------------------------12--------|
C |--------------------------------------------------------------------------12-12\-|

VERSE I
c |----------------|-----------------------------------------------------------------|
G |----------------|-----------------------------------------------------------------|
D#|----------------|------0---------------14-12---------------14-12--------0---------|
Bb|-5--------------|--(5)-5----7-7-12h-14-------14p-12-12h-14----------(5)-5-----7-7-|
F |---7-7-7-7p-5---|-7-7--7----7-7-----------------------------------7--7--7-----7-7-|
C |--------------7-|---------5-5-5---------------------------------------------5-5-5-|
                  x8

c |-----------------------------------|----------------|------------------------------------------------|
G |-----------------------------------|----------------|------------------------------------------------|
D#|--------14-12----12-14b-14br-12----|----------------|------0---------------14-12---------------14-12-|
Bb|-12h-14-------14----------------14-|-5--------------|--(5)-5----7-7-12h-14-------14p-12-12h-14-------|
F |-----------------------------------|---7-7-7-7p-5---|-7-7--7----7-7----------------------------------|
C |-----------------------------------|--------------7-|---------5-5-5----------------------------------|
                                                      x8

c |---------------|
G |---------------|
D#|------0--------|
Bb|--(5)-5----7-7-|
F |-7-7--7----7-7-|
C |---------5-5-5-|


c |-------------------------------------------------------------------------------|
G |-------------------------------------------------------------------------------|
D#|--------14-12-----------------------------------14-12-----------14br-12--------|
Bb|-12h-14-------14p-12p-0-12-/14-----------12h-14-------14p-12p-0---------14-14\-|
F |-------------------------------12-10-10\---------------------------------------|
C |-------------------------------------------------------------------------------|

c |---------------------------------------------------------------------------------|
G |---------------------------------------------------------------------------------|
D#|--------14-12-----------------------------------14-12----------------------------|
Bb|-12h-14-------14p-12p-0-12-/14-----------12h-14-------14p-12p-0-12h-14-----------|
F |-------------------------------12-10-10\-------------------------------12--------|
C |-----------------------------------------------------------------------12-12\----|

SOLO
c |--------------------------------------------------------------------------------------|
G |-12--12---12--------------------------------------------------------------------------|
D#|-14b-14b--14b-14b-(14br)p-12----12-12-12p-9-----------14br-12-14br-12----------12-----|
Bb|-----------------------------14-------------12-12-/14-----------------x-12h-14----14/-|
F |--------------------------------------------------------------------------------------|
C |--------------------------------------------------------------------------------------|

VERSE II
c |----------------|------------------------------------------------|-----------------|
G |----------------|------------------------------------------------|-----------------|
D#|----------------|------0---------------14-12---------------14-12-|-------0---------|
Bb|-5--------------|--(5)-5----7-7-12h-14-------14p-12-12h-14-------|---(5)-5-----7-7-|
F |---7-7-7-7p-5---|-7-7--7----7-7----------------------------------|-7--7--7-----7-7-|
C |--------------7-|---------5-5-5----------------------------------|-----------5-5-5-|
                  x8                                               x3

BREAK
c |------------------------------------|---------------------------|------|
G |------------------------------------|---------------------------|------|
D#|------------------------------------|---------------------------|------|
Bb|-----4--7---------4--7--9------4--7-|-----4--7---------4--7--9--|-(9)--|
F |-7\--2--5--5--7\--2--5--7--7\--2--5-|-7\--2--5--5--7\--2--5--7--|-(7)--|
C |-0---------3--0------------0--------|-0---------3--0--------(0)-|-(0)--|

OUTTRO
c |-------------------------------------------------------------------------------|
G |--------------------------------------------------------------------15---------|
D#|--------14-12-----------------------------------14-12-----------14b----14br-12-|
Bb|-12h-14-------14p-12p-0-12-/14-----------12h-14-------14p-12p-0----------------|
F |-------------------------------12-10-10\---------------------------------------|
C |-------------------------------------------------------------------------------|

c |---------------------------------------------------------------------------------|
G |---------------------------------------------------------------------------------|
D#|--------14-12-----------------------------------14-12----------------------------|
Bb|-12h-14-------14p-12p-0-12-/14-----------12h-14-------14p-12p-0-12h-14-----------|
F |-------------------------------12-10-10\-------------------------------12--------|
C |-----------------------------------------------------------------------12-12\----|



************************************

| /   slide up
| \   slide down
| h   hammer-on
| p   pull-off
| ~   vibrato
| +   harmonic
| x   Mute note
| b   Bend
| pb  Pre-bend
| br  Bend release
| pbr Pre-bend release
| brb Bend release bend

************************************
Добавлено: 24.12.2015
Вам также может быть интересно:
Другие материалы по этой песне:
  • Аккорды и текст

Страница создана 24.12.2015
http://primanota.ru/greenleaf/equators-chords.htm
Привет, Гость.
Предлагаем пройти революционный курс по гитаре.
Подарок от PrimaNota.Ru, забирай!