PrimaNota.ru - самый крупный в мире бесплатный архив песенных текстов, аккордов, табулатур и нот


Greenleaf - Depth Of The Sun - таба, видео

Регистрация Запомнить меня
Войти через:  Facebook Google Twitter Vk Yandex Mail.ru

Greenleaf - Depth Of The Sun - таба, видео

Печатать
Просмотров: 135
Уроки эстрадного вокала в Санкт-Петербурге
-------------------------------------------------------------------------------
                             Depth of the Sun - Greenleaf
-------------------------------------------------------------------------------
Tabbed by: Fiachra Woods
E-mail:

Tuning: CFBbD#Gc

INTRO
e|-----------|-----|-----------------------------------------------------------|
B|-----------|-----|-----------------------------------------------------------|
G|----(0)----|-----|-----------------------------------------------------------|
D|-----5-----|-----|-----------------------------------------------------------|
A|--/7---7-5-|--7--|---7-5---5-7--7p-5---5-7---7-5---5-7--7p-5---5-7---5-4-5-4-|
E|-----------|-----|-0-----7-----------7-----0-----7----------7------0---------|
             x23

e|------------------------------------------|----------------------------------|
B|------------------------------------------|----------------------------------|
G|------------------------------------------|---(0)------(0)------(0)----------|
D|--------------------------------5p-4------|----5--------5--------5-----------|
A|-5-5p-4---4-5---7-5---5-7-7p-5-------5-5--|-/7---7-5-/7---7-5-/7---7-5-/7----|
E|--------5-----0-----7----------7----------|----------------------------------|
                                         x2
VERSE I x2
e|----------------------------------------|-------------------------------------|
B|----------------------------------------|-------------------------------------|
G|----------------------------------------|-------------------------------------|
D|----------5----------7----------5-/9-5-4|-------4--------4--------4--4-5-/7---|
A|---7p-5-------7p-5-------7p-5-----------|-3-3-3----3-3-3----3-3-3-------------|
E|-0------7---0------7---0------7---------|-------------------------------------|
                                      x2                                         

e|----------------------------------------|
B|----------------------------------------|
G|----------------------------------------|
D|-------4--------4--------4--5-4h-5p-4---|
A|-3-3-3----3-3-3----3-3-3-------------5--|
E|----------------------------------------|

CHORUS I
e|---------------------------------------------------------------------------|
B|---------------------------------------------------------------------------|
G|---(0)-------(0)-------(0)-------(0)-------7-7-7-7----(0)------(0)---------|
D|----5---------5---------5---------5--------7-7-7-7-----5--------5----------|
A|-/7---7-5--/7---7-5--/7---7-5--/7---7-5-5--5-5-5-5--/7---7-5--/7--7-5------|
E|----------------------------------------------------(0)--------------------|


BREAK I
e|------------------------------------------------------------------------------|
B|------------------------------------------------------------------------------|
G|------------------------------------------------------------------------------|
D|------------------------------------------------------------------------------|
A|---7-5---5-7--7p-5---5-7---7-5---5-7--7p-5---5-7---5-4-5-4-5-5p-4---4-5---7-5-|
E|-0-----7-----------7-----0-----7-----------7-----0----------------5-----0-----|


e|----------------------|----------------------------------|
B|----------------------|----------------------------------|
G|----------------------|---(0)-------(0)-------(0)--------|
D|-------------5p-4-----|----5---------5---------5---------|
A|---5-7-7p-5-------5-5-|-/7---7-5--/7---7-5--/7---7-5--/7-|
E|-7----------7---------|----------------------------------|
                      x2


VERSE II
e|----------------------------------------|-------------------------------------|
B|----------------------------------------|-------------------------------------|
G|----------------------------------------|-------------------------------------|
D|----------5----------7----------5-/9-5-4|-------4--------4--------4--4-5-/7---|
A|---7p-5-------7p-5-------7p-5-----------|-3-3-3----3-3-3----3-3-3-------------|
E|-0------7---0------7---0------7---------|-------------------------------------|
                                      x2

e|----------------------------------------|
B|----------------------------------------|
G|----------------------------------------|
D|-------4--------4--------4--5-4h-5p-4---|
A|-3-3-3----3-3-3----3-3-3-------------5--|
E|----------------------------------------|

CHORUS II
e|---------------------------------------------------------------------------|
B|---------------------------------------------------------------------------|
G|---(0)-------(0)-------(0)-------(0)-------7-7-7-7----(0)------(0)---------|
D|----5---------5---------5---------5--------7-7-7-7-----5--------5----------|
A|-/7---7-5--/7---7-5--/7---7-5--/7---7-5-5--5-5-5-5--/7---7-5--/7--7-5------|
E|----------------------------------------------------(0)--------------------|

BREAK II
e|-----------------------------------------------------------------------------| 
e|-----------------------------------------------------------------------------|
B|-----------------------------------------------------------------------------|
G|-5-5-5---7-7-7--0----------------------5-5-5---7-7-7--0----------------------|
D|-5-5-5---7-7-7----5-4h-5p-4------------5-5-5---7-7-7----5-4h-5p-4------------|
A|-3-3-3--/5-5-5--------------5-/7-5-/7--3-3-3--/5-5-5--------------5-/7-------|
E|-----------------------------------------------------------------------------|

SOLO
e|-----------------------------------------------------------------------------|
B|-12---12---12-----------------------------------------15---------------------|
G|-14b--14b--14b--14br-12-----/16-14-12-9--9-7---7--14b----14br-12----12-------|
D|------------------------14-------------------9-------------------14----14-12-|
A|-----------------------------------------------------------------------------|
E|-----------------------------------------------------------------------------|


e|-------------------------------------------------------------------------------------------|
B|-------------------------12----------------------------------------------------------------|
G|----/16-14-12-9-9-7---7--14b-14b-14br-12----12---------------------------------------------|
D|--------------------9--------------------14----14-14-14-12----12---------------------------|
A|-14--------------------------------------------------------14----10-------12-12b-12b-10----|
E|--------------------------------------------------------------------12-12---------------12-|


e|-----------------------------------------------------------------------------|
B|-------------------------------------------------------------12-15-12-12-/17-|
G|--------------------------------------------------12h-14p-12-----------------|
D|-----------------------------12h-14p-12-12-12h-14----------------------------|
A|--------10h-12p-10-12-12-/14-------------------------------------------------|
E|-10h-12----------------------------------------------------------------------|


OUTTRO
e|---------------------------------------------------------------------------------| 
e|---------------------------------------------------------------------------------|
B|---------------------------------------------------------------------------------|
G|-5-5-5---7-7-7--0----------------------5-5-5---7-7-7--0--------------------------|
D|-5-5-5---7-7-7----5-4h-5p-4------------5-5-5---7-7-7----5-4h-5p-4----------------|
A|-3-3-3--/5-5-5--------------5-/7-5-/7--3-3-3--/5-5-5--------------5-/7-----------|
E|---------------------------------------------------------------------------------|


e|-----------------------------------------------------|
e|-----------------------------------------------------|
B|-----------------------------------------------------|
G|-5-5-5---7-7-7--0----------------------5-5-5---7-7-7-|
D|-5-5-5---7-7-7----5-4h-5p-4------------5-5-5---7-7-7-|
A|-3-3-3--/5-5-5--------------5-/7-5-/7--3-3-3--/5-5-5-|
E|-----------------------------------------------------|
  

************************************

| /   slide up
| \   slide down
| h   hammer-on
| p   pull-off
| ~   vibrato
| +   harmonic
| x   Mute note
| b   Bend
| pb  Pre-bend
| br  Bend release
| pbr Pre-bend release
| brb Bend release bend

************************************
Добавлено: 24.12.2015
Другие материалы по этой песне:
  • Аккорды и текст

Страница создана 24.12.2015
http://primanota.ru/greenleaf/depth-of-sun-chords.htm
Привет, Гость.
Предлагаем пройти революционный курс по гитаре.
Подарок от PrimaNota.Ru, забирай!