PrimaNota.ru - самый крупный в мире бесплатный архив песенных текстов, аккордов, табулатур и нот


Green Novice - Zyli Malni Padebeši - таба, видео

Регистрация Запомнить меня
Войти через:  Facebook Google Twitter Vk Yandex Mail.ru

Green Novice - Zyli Malni Padebeši - таба, видео

Печатать
Просмотров: 106
-------------------------------------------------------------------------------
                           Zyli Malni Padebeši - Green Novice
-------------------------------------------------------------------------------
Tabbed by: e.rotgalvis
E-mail: e.rotgalvis@gmail.com

Tuning: Standart



Intro
e|----------------------------|
B|----13----13-13-11-10-11-8--|
G|-12----12-------------------|
D|----------------------------| 3x
A|----------------------------| 
E|----------------------------|

e|-----------------------|
B|-10-10-11-13-13-11-10--|
G|-10-10-----------------|
D|-----------------------|
A|-----------------------|
E|-----------------------|

e|---------------------------------------------------|
B|-----------------------8-8-6-6-3-4-3h-4h-3h-4h-3h--|
G|-5-5-3-8-7-8-7-3-5-5-3-----------------------------|
D|---------------------------------------------------| x2
A|---------------------------------------------------|
E|---------------------------------------------------|

e|----------------------------|
B|----13----13-13-11-10-11-8--|
G|-12----12-------------------|
D|----------------------------| 3x
A|----------------------------| 
E|----------------------------|

e|-----------------------|
B|-10-10-11-13-13-11-10--|
G|-10-10-----------------|
D|-----------------------|
A|-----------------------|
E|-----------------------|
 

e|------------------------------------------|
B|------------------------------------------|
G|------------------------------------------|
D|------------------------------------------|
A|-----3-1-------3-1-------3-5-6-----3-1----|
E|-3-3-----3-3-3-----3-3-3-------3-3-----3--|

Disroted
e|-------------------------------------------|
B|-------------------------------------------|
G|-------------------------------------------|
D|--5-5-7-8-7-5-5-5-7-8-7-5-3-3-5-7-5-3-3-5--| x4
A|-------------------------------------------|
E|-------------------------------------------|

e|--------------------|
B|--------------------|
G|--------------------|
D|-5-3-5-5-3-3-3-5-5--| x2
A|-5-3-5-5-3-3-3-5-5--|
E|-3-1-3-3-1-1-1-3-3--|

e|----------------------------------|
B|----------------------------------|
G|----------------------------------|
D|-5-------------3-5-3-5-5-3-3-5-5--| x4
A|-5-------------5-3-5-5-3-3-3-5-5--|
E|-3-------------3-1-3-3-1-1-1-3-3--|
    singing part 
************************************

| /   slide up
| \   slide down
| h   hammer-on
| p   pull-off
| ~   vibrato
| +   harmonic
| x   Mute note
| b   Bend
| pb  Pre-bend
| br  Bend release
| pbr Pre-bend release
| brb Bend release bend

************************************
Добавлено: 09.10.2015
Другие материалы по этой песне:
  • Аккорды и текст

Страница создана 09.10.2015
http://primanota.ru/green-novice/zyli-malni-padebesi-chords.htm
Привет, Гость.
Предлагаем пройти революционный курс по гитаре.
Подарок от PrimaNota.Ru, забирай!