PrimaNota.ru - самый крупный в мире бесплатный архив песенных текстов, аккордов, табулатур и нот


Green Lizard - Rise - текст песни, таба, видео

Регистрация Запомнить меня
Войти через:  Facebook Google Twitter Vk Yandex Mail.ru

Green Lizard - Rise - текст песни, таба, видео

Печатать
Просмотров: 128
Title     : Rise
Artist    : Green Lizard
Album     : Identity
Capo      : none
Setting   : E-A-D-G-B-E
Tabbed by : SomeMetalLover
-------------------------------------------------

Title: Rise
Artist: Green Lizard
Album: Identity

Instrument: 6 String Guitar

Tuning: Dropped D (D A D G B E)

PM= palm mute
H= Harmonic

INTRO:
Part1
E|------------------------------8---8---8---8---8---||
B|--7--10---10---9---7---7---7---7---7---7---7----8-||
G|--7----7----7---7---7---7--9----9---9---9---9-----||
D|--7-----7----7---7---7-----7----------------------||
A|--------------------------------------------------||
D|--------------------------------------------------||

Part 2
E|-------------------------------------------------------------||
B|-------------------------------------------------------------||
G|-------------------------------------------------------------||
D|---5p4---------5p4---------5p4---------5p4---------5p4-------||
A|---------3h5---------3h5---------3h5---------3h5---------3h5-||
D|-0-----0-----0-----0-----0-----0-----0-----0-----0-----0-----||

VERSE 
E|------------------||
B|------------------||
G|--10-------5------||
D|---x-------x------||
A|---9-------3------||
D|---0-------0------||
  "Touch my hand....."

Halfway part 1 + 2 from INTRO are played. 

CHORUS
E|--------------------------------------------||
B|--------------------------------------------||
G|--------------------------------------------||
D|--7--7--6H----3--3---3H----0--0----0--0-----||
A|--7--7--6H----3--3---3H----0--0----0--0-----||
D|--7--7--6H----3--3---3H----0--0----0--0-----||
  "Just tell me....." 


2nd CHORUS
E|----------------0--0--------||
B|----------------3--0--------||
G|----------------2--0--------||
D|-7-------3------0--0--------||
A|-7-x8----3-x8---0--0--------||
D|-7-------3------0--0--------||
  "Jesus   help me....."

BRIDGE
E|---------------------------------------------||
B|----------------------------10-7------10-7---||
G|-------7-6-------7-6---------7-7-------7-7---||
D|-------7-7-------7-7---0-0-0-----0-0-0-------||
A|-0-0-0-----0-0-0-----------------------------||
D|---------------------------------------------||

Heavy INTERLUDE
E|--------------------------------------------------||
B|--------------------------------------------------||
G|--------------------------------------------------||
D|-1-1-1------1-1-1------0-0-0------0-0-0-----------||
A|-1-1-1-1-0--1-1-1-1-0--0-0-0-3-0--0-0-0-3-0-------||
D|-1-1-1------1-1-1------0-0-0------0-0-0-----------||
  "My thoughts....."

E|--------------------------------------------------||
B|--------------------------------------------------||
G|--------------------------------------------------||
D|-1-1-1-1------1-1-1-1-1----0-0-0-0----0-0-0-0-----||
A|-1-1-1-1-1-0--1-1-1-1-1-0--0-0-0-0-3--0-0-0-0-3-0-||
D|-1-1-1-1------1-1-1-1------0-0-0-0----0-0-0-0-----||
  "My eyes are....."

E|-------------------------------||
B|-------------------------------||
G|-------------------------------||
D|-1-1-1-1------1-1-1-1------0---||
A|-1-1-1-1-1-0--1-1-1-1-1-0--0---||
D|-1-1-1-1------1-1-1-1------0---||
  "Why I was left....  behind"

Play part 1 again

Добавлено: 27.04.2012
Вам также может быть интересно:
Другие материалы по этой песне:
  • Аккорды и текст

Страница создана 15.04.2012
http://primanota.ru/green-lizard/rise-chords.htm
Привет, Гость.
Предлагаем пройти революционный курс по гитаре.
Подарок от PrimaNota.Ru, забирай!