PrimaNota.ru - самый крупный в мире бесплатный архив песенных текстов, аккордов, табулатур и нот


Green Jello - Three Little Pigs - аккорды и текст, таба, бас-таба, видео

Регистрация Запомнить меня
Войти через:  Facebook Google Twitter Vk Yandex Mail.ru

Green Jello - Three Little Pigs - аккорды и текст, таба, бас-таба, видео

Печатать
Просмотров: 150
Three Little Pigs
Green Jello
		   : Main Riff :


You Can Use These Two:

1)

E|--------------------------|
B|--------------------------|
G|--------5--5--6--9-----5--|
D|--4--7--5--5--6--9--7--5--|
A|--4--7--------------7-----|
E|--------------------------|


2)

E|--------------------------|
B|--------------------------|
G|--------------------------|
D|--------5--5--6--5-----5--|
A|--4--7--3--3--4--3--7--3--|
E|--2--5--------------5-----|


Between Versus:

F# G Ab A     
Добавлено: 31.08.2013
Другие материалы по этой песне:

Страница создана 19.03.2012
http://primanota.ru/green-jello/three-little-pigs-chords.htm
Привет, Гость.
Предлагаем пройти революционный курс по гитаре.
Подарок от PrimaNota.Ru, забирай!