PrimaNota.ru - самый крупный в мире бесплатный архив песенных текстов, аккордов, табулатур и нот


Green Jello - Carnage Rules - таба, видео

Регистрация Запомнить меня
Войти через:  Facebook Google Twitter Vk Yandex Mail.ru

Green Jello - Carnage Rules - таба, видео

Печатать
Просмотров: 124
I'm VERY surprised that I haven't found a tab for this song. It kicks ass!

Tuning: Standard E A D G b e

Starts out with about 1 minute of intense sounds of destruction and ends with a scream, enter Green Jelly/Green Jello

Opening Riff
|--------------------------------------------------------------
|--------------------------------------------------------------
|--------------------------------------------------------------
|--------------------------------------------------------------
|-4--4-2-5-4-3-2-x-/7-7-7-5-4--4-2-5-4-3-2--2-2--2--2-4--------
|-2--2-0-3-2-1-0-x-/5-5-5-3-2--2-0-3-2-1-0--0-0--0--0-2--------
*Let ring

Verse Riff palm mute all   End verse/intro pre-chorus
|------------------------| |-----------------------------------
|------------------------| |-----------------------------------
|------------------------| |-----------------------------------
|------------------------| |-----------------------------------
|-3-/4-x-3-/4-x-3-/5-2-x-| |-2--2-2----------------------------
|-1-/2-x-3-/2-x-3-/3-0-x-| |-0--0-0----------------------------

Pre-chorus                  pm..............
|----------------------------------------------
|----------------------------------------------
|----------------------------------------------
|-4-4-4-x--------------------------------------
|-2-2-2-x-2-2-2--x-x-5-5-5--x-4--4-4-2-4-5-4-2-
|---------0-0-0--x-x-3-3-3--x-2--2-2-0-2-3-2-0-

The Chorus is just the Opening Riff

Well...that should be the entire song, except for the ending solo (gimme a break, im only 16 :P).  You MAY recognize this riff from the popular Super Nintendo game Maximum Carnage (Carnage being Spider-Man's new arch-nemesis).
Green Jelly/Green Jello made this song for that game.  Enjoy!
Добавлено: 30.05.2012
Другие материалы по этой песне:
  • Аккорды и текст

Страница создана 30.05.2012
http://primanota.ru/green-jello/carnage-rules-chords.htm
Привет, Гость.
Предлагаем пройти революционный курс по гитаре.
Подарок от PrimaNota.Ru, забирай!