PrimaNota.ru - самый крупный в мире бесплатный архив песенных текстов, аккордов, табулатур и нот


Green gray - Темная Ночь - аккорды и текст, видео

Регистрация Запомнить меня
Войти через:  Facebook Google Twitter Vk Yandex Mail.ru

Green gray - Темная Ночь - аккорды и текст, видео

Печатать
Просмотров: 232
Темная Ночь
Green gray
Альбом: Эмигрант (2002)
Tabbed by Sergey Popov from Kharkov, Ukraine
e-mail: popov_sergey@ukr.net


Intro:
Деление в риффе чисто логическое и ничего общего с ритмом не имеет
(I)          Am        F       C       G        Am        F      C
e|----------------|-----------------|----------------|-----------------------|
B|----------------|-----------------|----------------|-----------------------|
G|--------7--5----|-----------------|--------7--5----|-----------5-----------|
D|--2-/5----------|--5h7p5-3---2----|--2-/5----------|--5h7p5-3----5-h7p5-3--|
A|----------------|-----------------|----------------|-----------------------|
E|----------------|-----------------|----------------|-----------------------|
(II)G        Am
e|----------------|-------------------|-------------------|
B|----------------|----------------8--|-------------------|
G|--------7--5----|--8r7-5----5-/9----|--7--5--7--5-------|
D|--2-/5----------|-------------------|----------------7--|
A|----------------|-------------------|-------------------|
E|----------------|-------------------|-------------------|
(III)
e|---------------------------------------|------------|
B|------------------------8--10----------|------------|
G|---------------5--7--9---------7---5--|--7p5-------|
D|--7-5----5--7--------------------------|------5-h7--|
A|------7--------------------------------|------------|
E|---------------------------------------|------------|

Verse1:
Am  F    C   G
Слепой драйв
Am  F    C   G
Сказал      die
Am F     C   G
Молил  стой
Am F     C   G
Отдай


Chorus:
F                      F
Где-то между звезд одинокий мир
F                   G        C
Пряною весной вырастут цветы
 G      F        G     C
Темная ночь вековая печаль
 G      F         G      C
Темная ночь бесконечная даль
   G      F          G         C
В темную ночь не скучай вот ответ
    G      F
И явился свет


Verse2:
Am F   C    G
Седой кайф
Am  F     C   G
Сказал встань
Am  F   C   G
Вокруг ночь
Am   F C G
Взлетай

Chorus:
Где-то между звезд одинокий мир
Пряною весной пусть растут цветы
Темная ночь вековая печаль
Темная ночь бесконечная даль
В темную ночь не скучай вот ответ
И явился свет

  F                    F        F F
Где-то между звезд одинокий мир
  F                    F        G G
Где-то между звезд одинокий мир

Bridge: (I и II) +
                 10 pre-banded to 11
                       ^
e|---------------------11--11r10----------------------------|
B|--------------8--10------------10--10--------------------|
G|-----5--7--9---------------------------8--8r7--8r7--5-----|
D|--7----------------------------------------------------7--|
A|----------------------------------------------------------|
E|----------------------------------------------------------|


Chorus:
Где-то между звезд одинокий мир
Пряною весной пусть растут цветы
Темная ночь вековая печаль
Темная ночь бесконечная даль
В темную ночь не скучай вот ответ
И явился свет
Добавлено: 15.01.2014
Вам также может быть интересно:
Другие материалы по этой песне:
  • Аккорды и текст

Страница создана 15.01.2014
http://primanota.ru/green-gray/temnaya-noch-chords.htm
Привет, Гость.
Предлагаем пройти революционный курс по гитаре.
Подарок от PrimaNota.Ru, забирай!