PrimaNota.ru - самый крупный в мире бесплатный архив песенных текстов, аккордов, табулатур и нот


Green gray - Эмигрант - аккорды и текст, видео

Регистрация Запомнить меня
Войти через:  Facebook Google Twitter Vk Yandex Mail.ru

Green gray - Эмигрант - аккорды и текст, видео

Печатать
Просмотров: 104
Эмигрант
Green gray
Альбом: Эмигрант (2002)
Tabbed by Sergey Popov from Kharkov, Ukraine
e-mail: popov_sergey@ukr.net

Intro:
Piano Intro:  x4
e|------5-------1----------|
B|----------------------1--|
G|----5-------2-------2----|
D|--3-------0--------------|
A|------------------0------|
E|-------------------------|

Да, да, я знаю, так пальцы не удобно ставить,
но с практикой привыкаешь ;)

Piano riff:
e|--5--3--1--0--1--|

Вставлять, где больше нравиться :)

После 2-го piano intro подключается еще Riff1 на гитаре.


Verse 1:
D		      Am
 Голос стих, остался хрип
C			G 
 Свет сквозь стены мягко постелил
D		  Am
 У ворот сидит старик
C		    G
 Выход в рай условно сохранил

Chorus (distortion guitar)
  F    Dm          Am   Riff2
   Эмигрант увидел мир
   Овертайм давно прошел
                        Riff3
   Перепутал час и миг  
   Тонких линий не нашел

Verse 2:
 Заметал следы молвой
 Был готов пустить лису на воротник
 Растворился каплей в молоке-е-е-ее
 Руки умывал потом речной водой

Chorus.

Bridge:

e|------5-------1---------------------|------5-------1----------|
B|----------------------1--0----------|----------------------1--|
G|----5-------2-------2--------0------|----5-------2-------2----|
D|--3-------0----------------------2--|--3-------0--------------|
A|------------------0-----------------|------------------0------|
E|------------------------------------|-------------------------|
Хоть это, может, и глупо, в одну партию писать пианино
и гитару, но если играешь один, то так мелодия лучше отражается

Плюс Riff1 на гитаре.

end of bridge.

Chorus.

  F    Dm     Am 
   Перепутал час и миг    
   Тонких линий не нашел
   Не наше-е-ел...
   Не наше-е-ел...


The End
____________________________________________________________________

Riff1:
e|------------------------------------|---------------------------|
B|------------------------------------|----8-10-10----------------|
G|---------5--7--5--7----5--7-7---/9-|--9---------7----52--5---|
D|--(5)/7-----------------------------|---------------------------|
A|------------------------------------|---------------------------|
E|------------------------------------|---------------------------|

Riff2:
e|----------------------|
B|----------------------|
G|--4/54----0----------|
D|----------------2-----|
A|-------------------3--|
E|----------------------|

Riff3:
e|------------------|
B|------------------|
G|--4----0----------|
D|------------2-----|
A|---------------3--|
E|------------------|
Добавлено: 28.02.2014
Другие материалы по этой песне:

Страница создана 29.02.2012
http://primanota.ru/green-gray/emigrant-chords.htm
Привет, Гость.
Предлагаем пройти революционный курс по гитаре.
Подарок от PrimaNota.Ru, забирай!