PrimaNota.ru - самый крупный в мире бесплатный архив песенных текстов, аккордов, табулатур и нот


Green Day - Time Of Your Life - аккорды и текст, таба, видео

Регистрация Запомнить меня
Войти через:  Facebook Google Twitter Vk Yandex Mail.ru

Green Day - Time Of Your Life - аккорды и текст, таба, видео

Печатать
Просмотров: 1628
Time Of Your Life
Green Day
Good Riddance (Time of Your Life)

Tuning EADGBe

Chords used 
 
            G = 320033
        Cadd9 = x32030
            D = xx0232
           Em = 022000
            C = x32010

My first chords/tabs Enjoy!!!

(PS: I wasnt sure if these should be chords or tabs...)


Intro 1 (Optional)

e|------------------------------------------|
B|------------------------------------------|
G|-----0-----------------0------------------|
D|--------0-----------------0---------------|
A|------------------------------------------|
E|--3-----------------3---------------------|

Intro 2

                         |G|
E|---------------------------------------------------
A|-------3----------------------3--------------------
D|----------0----------------------0-----------------
G|-----------------0----------------------0----------
B|-------------2----------------------2--------------
E|----3---------------------3------------------------

  
          |Cadd9|         |           |D|
-----------------------------------------------------|
--------3--------------------------3-----------------|
-----------0-----0--------------------2-------2------|
--------------2-----------------0----------0---------|
-----2-----------------------------------------------|
-----------------------------------------------------|

(Repeat)

(Use Intro 2 for these lyrics:)

G                        Cadd9              D
Another turning point, a fork stuck in the road

G                             Cadd9                D
Time takes you by the wrist, directs you where to go
Tab 1:

         |Em|                     |G|
e|-------------------------------------------|
B|-----0-----------------------3-------------|
G|--------0-----0-----------------0-----0----|
D|-----------2-----------------------2-------|
A|--2----------------------------------------|
E|-------------------------3-----------------|

(Repeat 3 times while he sings:)

Em           G            Em                 G
So make the best of this test and don't ask why

Em           G            Em                 G
Its not a question but a lesson learned in time

Em                  G             Em             G
Its something unpredictable, but in the end its right


Tab 2
        |Em|                      |D|
e|-------------------------------------------| 
B|------0-----------------------3------------|
G|--------0---0--------------------2-----2---|
D|----------2---------------0---------0------|
A|---2---------------------------------------|
E|-------------------------------------------|


  Em                D            G
I hope you had the time of your life

(On G start strumming)

G,C,D x2

G                             C                   D
So take the photographs and still frames in your mind

G                      C                    D
Hang it on a shelf in good health and good time

Em            G           Em            G
Tattoos and memories and dead skin on trial

Em            G             Em             D
For what its worth, it was worth all the while

Em                   G            Em              D
It's something unpredictable, but in the end its right

Em                  C            D
I hope you had the time of your life

G,C,D x4

Em,G x3

Em,D

Em                  G            Em              G
Its something unpredictable, but in the end its right

Em                  C            D
I hope you had the time of your life

G,C,D x2

(Repeat Tab 1 twice)
(Then tab 2 once)
(Then Intro 2)

(Finally, strum a G chord, but without the high e,
          so you play: 32003x)
Добавлено: 18.07.2012
Другие материалы по этой песне:

Страница создана 03.03.2012
http://primanota.ru/green-day/time-of-your-life-chords.htm
Привет, Гость.
Предлагаем пройти революционный курс по гитаре.
Подарок от PrimaNota.Ru, забирай!