PrimaNota.ru - самый крупный в мире бесплатный архив песенных текстов, аккордов, табулатур и нот


Green Day - Scumbag - аккорды и текст, таба, бас-таба, видео

Регистрация Запомнить меня
Войти через:  Facebook Google Twitter Vk Yandex Mail.ru

Green Day - Scumbag - аккорды и текст, таба, бас-таба, видео

Печатать
Просмотров: 343
Scumbag
Green Day
In the Chorus, you can also play a fast Bb before the B chord.
 
(e.g. F# G# Bb B
Never thought I'd seen the likes of you around this place )

[Verse 1]

F# G# B
You come around every now and then
F# G# B
Your clothes are different but you're still the same
e
Why else would you come here

Scumbag on a mission

[Verse 2]

F# G# B
You're telling me that it's been a while
F# G# B
Shit eating green and I'm begging by
e
Somebody let you come here

Scumbag with permission

[Chorus

F# G# B
Never thought I'd seen the likes of you around this place
G#
Whats the special occasion
F# (hold)
Did you run out of friends?

[Verse 3]

F# G# B
Here you are coming round again
F# G# B
And things are different but you still pretend
e
You got a reason to come here

Scumbag with ambition

[Verse 4]

F# G# B
And now your telling me that things have changed
F# G# B
And you'll be leaving in a couple days
e
Your gonna change your world today

Scumbag with a vision

[Chorus]

F# G# B
It must be nice to know you got it all figured out
G# F# (hold)
But from where I'm sitting it's the same thing again and again

[Solo]

e|-------------0--0--0--0--0--0--0-------------------0--0--0--0--0--0--0--0----|
B|----------4--4--4--2--4--4--2--4--2-------------4--4--4--2--4--4--2--4--7--4-|
G|----------4--------------------------4----------4----------------------------|
D|-4--6--6--4-----------------------------4--6--6-4----------------------------|
A|-4--6--6--2-----------------------------4--6--6-2----------------------------|
E|-2--4--4--------------------------------2--4--4------------------------------|

e|-------------------------------------------------------|
B|--0--0--0--0--0--0-----------0--0--0--0--0--0----------|
G|--4--4--3--3--1--1-----------4--4--3--3--1--1----------|
D|--------------------4--4--4--------------------4--4--4-|
A|-------------------------------------------------------|
E|-------------------------------------------------------|

[Chorus]

F# G# B
You never stop to think before you open up your mouth
G# F#
Cause everytime you Do it's the same thing again and again


That's it.
Добавлено: 06.01.2014
Другие материалы по этой песне:

Страница создана 07.03.2012
http://primanota.ru/green-day/scumbag-chords.htm
Привет, Гость.
Предлагаем пройти революционный курс по гитаре.
Подарок от PrimaNota.Ru, забирай!