PrimaNota.ru - самый крупный в мире бесплатный архив песенных текстов, аккордов, табулатур и нот


Green Day - Restless Heart Syndrome - аккорды и текст, таба, бас-таба, видео

Регистрация Запомнить меня
Войти через:  Facebook Google Twitter Vk Yandex Mail.ru

Green Day - Restless Heart Syndrome - аккорды и текст, таба, бас-таба, видео

Печатать
Просмотров: 1923
Уроки эстрадного вокала в Санкт-Петербурге
Restless Heart Syndrome
Green Day
Band: Green Day
Song: Restless Heart Syndrome
Album: 21st Century Breakdown
Track: 13

Hi everyone! So this is an ACOUSTIC VERSION of the song. 
It's not the album version. I made an acoustic version so 
you can play it around a fire or just for fun. So please 
don't base your opinion on the fact that it's not the 
same as the album, but as a “one-man playing” version. 
Thanks and enjoy playing this awesome GD song!!

NOTE: THIS IS A CAPO VERSION (3RD FRET), 
IF YOU'RE NOT USING A CAPO, PLEASE GO DOWN 
AFTER THE END OF THE SONG FOR THE 
STANDARD TRANSCRIPTION.

You MUST USE A CAPO AT 3RD FRET, but the chords that 
are written here are standard...

Gm ======== 022000
Gm/F ====== x54000
Em7b5 ===== x42000
Eb7M   ==== x32000
Em7b13 ==== x42200
Cm ======== x02210
Cm/Bb ===== 3x2210
Am7b5 ===== 2x2210
Ab7M   ==== 1x2210
D7 ======== x21202
D ========= x24442
F ========= xx0232

If you're NOT USING A CAPO, the chords are:

Gm ======== 355333
Gm/F ====== 1x0333
Em7b5 ===== 0x2333
Eb7M   ==== x68886
Em7b13 ==== 0x2013
Cm ======== x35543
Cm/Bb ===== 6x5043 or 6x558x
Am7b5 ===== x05543
Ab7M   ==== 4x5543
D7 ======== xx0212
D ========= xx0232
F ========= 133211


Intro: (REMEMBER CAPO 3RD FRET)

  Gm       C         F        Bb
|------------------|-----5------------|
|-----0------------|-3----------------|
|-0--------2---2---|---2---2--0---0---|
|---2---2----2---2-|-0----------0---0-|
|----------0-------|------------------|
|-0----------------|----------3-------|

  Eb       Ab        D
|-----3------------|--------|
|-1------------1---|-4------|
|---0---0--2-------|-4------|
|------------3---3-|-4------|
|-3----------------|-2------|
|----------1-------|--------|

Verse 1:

Gm         Gm/F          Em7b5      Eb7M  
I've got a really bad disease

Gm          Gm/F          Em7b13          Eb7M  
It's got me begging on my hands and knees 

   Gm      Gm/F      Em7b5  Eb7M  
So take me to       emergency 

Gm                Gm/F           Em7b13   Eb7M  
'Cause something seems to be missing 



Gm       Gm/F            Em7b5      Eb7M  
Somebody take the pain away 

Gm               Gm/F         Em7b13       Eb7M  
  It's like an ulcer bleeding in my brain 

   Gm      Gm/F   Em7b5  Eb7M  
So send me to the pharmacy 

Gm         Gm/F         Em7b13      Eb7M  
  So I can lose my memory 



Pre-Chorus:

Cm       Cm/Bb
    I'm elated 

Am7b5    Ab7M  
    Medicated 

Cm             Cm/Bb           Am7b5  Ab7M   
  Lord knows I tried to find a way           

         D7 (or D)
  to run away. 



Verse 2:

Gm             Gm/F          Em7b5      Eb7M  
  I think they found another cure 

Gm              Gm/F            Em7b13 Eb7M  
  For broken hearts and feeling insecure 

      Gm    Gm/F        Em7b5  Eb7M  
You'd be surprised what I endure 

Gm                 Gm/F        Em7b13     Eb7M  
  What makes you feel so self-assured? 



Gm           Gm/F            Em7b5  Eb7M  
   I need to find a place to hide
 
Gm              Gm/F            Em7b13      Eb7M  
   You never know what could be waiting outside 

    Gm    Gm/F     Em7b5       Eb7M  
The accidents that you could find 

Gm                  Gm/F     Em7b13  Eb7M  
  It's like some kind of suicide 


Pre-Chorus:

Cm         Cm/Bb  Am7b5      Ab7M  
   So what ails you is what impales you 

Cm             Cm/Bb          Am7b5 Ab7M           D7 (or D)
   I feel like I've been crucified      to be satisfied 


Chorus:

Gm             Gm/F
  I'm a victim     of my symptom 

Em7b5        Cm           F       D
     I am my own worst enemy 

Gm               Gm/F
  You're a victim    of your symptom 

Em7b5             Cm           F     
     You are your own worst enemy 

D
Know your enemy 


Solo:

Gm   Gm/F   Em7b5   Eb7M  
Gm   Gm/F   Em7b13  Eb7M    
Gm   Gm/F   Em7b5   Eb7M  
Gm   Gm/F   Em7b13  Eb7M    

Or you can play the “real” solo instead of chords

 (REMEMBER CAPO 3RD FRET)
 played fast (tremolo picking) 
|-------------------|-----------------------------|
|-5--8-5-7---8-5----|-8-5-7---8-10---8-7-8---7-3--|
|-------------------|-----------------------------|
|-------------------|-----------------------------|
|-------------------|-----------------------------|
|-------------------|-----------------------------|

(bend gradually while picking fast to hit the right note) 
|-------------------|------------------------|
|-5--8-5-7---8-5----|-8-5-7---8-10-11b12-----|
|-------------------|------------------------|
|-------------------|------------------------|
|-------------------|------------------------|
|-------------------|------------------------|


Pre-Chorus:

Gm
    I'm elated 

Gm/F
    Medicated 

Em7b5        Cm            F     D
     I am my own worst enemy 

Gm
    So what ails you 

Gm/F
    Is what impales you 

Em7b5             Cm            F     D
     You are your own worst enemy 



Chorus :

Gm               Gm/F
  You're a victim    of the system 

Em7b5             Cm            F     D
     You are your own worst enemy 

Gm               Gm/F
  You're a victim    of the system 

Em7b5             Cm            F     D
     You are your own worst enemy


Outro:(REMEMBER CAPO 3RD FRET)

Part 1:
  Gm
||-----------------|------------------|
||-----------------|------------------|
||---------9-9-9-9-|---------9-9-9-9--|
||---------x-x-x-x-|---------x-x-x-x--|
||-x-x-x-x-7-7-7-7-|-x-x-x-x-7-7-7-7--|
||-0-0-0-0---------|-0-0-0-0----------|


  Eb
|------------------|-------------------||
|------------------|-------------------|| 
|----------5-5-5-5-|-----5-------5/4---||   
|-x-x-x-x--x-x-x-x-|-x-x-x---x-x-x-----|| 
|-3-3-3-3----------|-3-3-3---3-3-3/2---||
|------------------|-------------------||

Repeat Part 1 another time...

Part 2:
  Gm
||-----------------|------------------|
||---------8-8-8-8-|---------8-8-8-8--|
||---------9-9-9-9-|---------9-9-9-9--|
||---------x-x-x-x-|---------x-x-x-x--|
||-x-x-x-x-7-7-7-7-|-x-x-x-x-7-7-7-7--|
||-0-0-0-0---------|-0-0-0-0----------|

  Eb
|------------------|-------------------||
|----------5-5-5-5-|-----5-------5/4---||
|----------5-5-5-5-|-----5-------5/4---||    
|-x-x-x-x—-5-5-5-5-|-x-x-5---x-x-5/4---||
|-3-3-3-3----------|-3-3-----3-3-------||
|------------------|-------------------||

Repeat Part 2 another time...

 Gm
|----------------|-0----|
|----------------|-0----|
|----------------|-0----|
|-2---2---2---2--|-2----|
|-2---2---2---2--|-2----|
|-0---0---0---0--|-0----|


STANDARD VERSION :

IF YOU'RE NOT USING A CAPO, THERE IS THE “STANDARD” 
TRANSCRIPTION...

Intro:

  Gm       C         F           Bb
|------------------|-------8------------|
|-----3------------|--------------------|
|-3--------5---5---|-10-----------------|
|---5---5----5---5-|----10---10-8---8---|
|----------3-------|--8-----------8---8-|
|-3----------------|------------6-------|

  Eb       Ab        D
|-----6------------|--------|
|--------------4---|-7------|
|-8-----8--5-------|-7------|
|---8--------6---6-|-7------|
|-6----------------|-5------|
|----------4-------|--------|


Solo:

Played fast (tremolo picking) 
|-----------------|---------------------------------|
|8--11-8-10--11-8-|-11-8-10--11-13--11-10-11--10-6--|
|-----------------|---------------------------------|
|-----------------|---------------------------------|
|-----------------|---------------------------------|
|-----------------|---------------------------------|

(bend gradually while picking fast to hit the right note) 
|------------------|------------------------|
|-8--11-8-10--11-8-|-11-8-10--11-13-14b15---|
|------------------|------------------------|
|------------------|------------------------|
|------------------|------------------------|


Outro:

Part 1:
  Gm
|---------------------|----------------------|
|---------------------|----------------------|
|---------12-12-12-12-|---------12-12-12-12--|
|----------x--x--x--x-|----------x—-x--x--x--|
|-x-x-x-x-10-10-10-10-|-x-x-x-x-10-10-10-10--|
|-3-3-3-3-------------|-3-3-3-3--------------|

  Eb
|------------------|-------------------|
|------------------|-------------------|
|----------8-8-8-8-|-----8-------8/7---|    
|-x-x-x-x--x-x-x-x-|-x-x-x---x-x-x-----|
|-6-6-6-6----------|-6-6-6---6-6-6/5---|
|------------------|-------------------|

Repeat Part 1 another time

Part 2:
  Gm
|---------------------|----------------------|
|---------11-11-11-11-|---------11-11-11-11--|
|---------12-12-12-12-|---------12-12-12-12--|
|----------x--x--x--x-|----------x—-x--x--x--|
|-x-x-x-x-10-10-10-10-|-x-x-x-x-10-10-10-10--|
|-3-3-3-3-------------|-3-3-3-3--------------|


  Eb
|------------------|-------------------|
|----------8-8-8-8-|-----8-------8/7---|
|----------8-8-8-8-|-----8-------8/7---|    
|-x-x-x-x--8-8-8-8-|-x-x-8---x-x-8/7---|
|-6-6-6-6----------|-6-6-----6-6-------|
|------------------|-------------------|

Repeat Part 2 another time...

 Gm
|----------------|-3----|
|----------------|-3----|
|----------------|-3----|
|-5---5---5---5--|-5----|
|-5---5---5---5--|-5----|
|-3---3---3---3--|-3----|

Tabber: Maxime Legault

Добавлено: 24.06.2012
Другие материалы по этой песне:

Страница создана 20.03.2012
http://primanota.ru/green-day/restless-heart-syndrome-chords.htm
Привет, Гость.
Предлагаем пройти революционный курс по гитаре.
Подарок от PrimaNota.Ru, забирай!