PrimaNota.ru - самый крупный в мире бесплатный архив песенных текстов, аккордов, табулатур и нот


Green Day - Only Of You Live - таба, видео

Регистрация Запомнить меня
Войти через:  Facebook Google Twitter Vk Yandex Mail.ru

Green Day - Only Of You Live - таба, видео

Печатать
Просмотров: 216
Hey, this is my first tab so go easy on me.
This is a great Pop-Punk song that is real easy to play.
I tabbed the Live Version of "Only of You" from the Bootleg Album "Spitting"
I didn't tab the solo because someone else has already done it and I too lazy to.

Full Credit to Billie Joe and Band for a great song.

Long live Punk Rock!

----------------------------------------------------------------------------
                             Only Of You - Green Day
----------------------------------------------------------------------------
Tabbed by: Boddah101 (Albert Reid)
Email: soloreid@hotmail.com

Tuning: Regular

Intro
e|----------------------------------------------|
B|----------------------------------------------|
G|--2--2--2--4--4--4--7--7--7--9--9--9----------|
D|--2--2--2--4--4--4--7--7--7--9--9--9----------|
A|--0--0--0--2--2--2--5--5--5--7--7--7----------|
E|----------------------------------------------|
PM     ____     ____     ____     ____


Verse
e|----------------------------------------------|
B|----------------------------------------------|
G|--2--2--2--4--4--4--7--7--7--9--9--9----------|
D|--2--2--2--4--4--4--7--7--7--9--9--9----------|
A|--0--0--0--2--2--2--5--5--5--7--7--7----------|
E|----------------------------------------------|


Chorus
e|--------3--------------------------------------|
B|--------2--------------------------------------|
G|-----2--3----4--4--4--4------------------------|
D|--4--2-------4--4--4--4------------------------|
A|--4--0-------2--2--2--2------------------------|
E|--2--------------------------------------------|
               "The first time I caught"

Bridge
e|-----------------------------------------------|
B|-----------------------------------------------|
G|--4--4--2--2-----------------------------------|
D|--4--4--2--2--4--2--4--2--4--2--4--2-----------|
A|--2--2--0--0--4--2--4--2--4--2--4--2-----------|
E|--------------2--0--2--0--2--0--2--0-----------|

For Marley!
Добавлено: 27.05.2012
Другие материалы по этой песне:
  • Аккорды и текст

Страница создана 27.05.2012
http://primanota.ru/green-day/only-of-you-live-chords.htm
Привет, Гость.
Предлагаем пройти революционный курс по гитаре.
Подарок от PrimaNota.Ru, забирай!