PrimaNota.ru - самый крупный в мире бесплатный архив песенных текстов, аккордов, табулатур и нот


Green Day - Nobody Likes You - текст песни, таба, видео

Регистрация Запомнить меня
Войти через:  Facebook Google Twitter Vk Yandex Mail.ru

Green Day - Nobody Likes You - текст песни, таба, видео

Печатать
Просмотров: 348
artist:green day
album:american idiot
song:homecoming
part:3

tuning:standard
legend:

        ( ) - optional note
         ~  - let it ring


intro:
     gtr 1

e|--222222222222-----|
B|--333333333333-----|
G|--222222222222-----|
D|--000000000000-----|
A|-------------------|
E|-------------------|


intro part 2:
     gtr 2

e|------------------------------------|
B|--19--19--17--15--17----19-19--15---|
G|------------------------------------|
D|------------------------------------|
A|------------------------------------|
E|------------------------------------|

     gtr 1 
( actually,gtr 1 only plays a D chord...but this is a fun way to play it! :P )

e|---2---2---0--------0------2--2------|
B|---3---3---3----3---3------3--3--3---|
G|---2---2---2---(2)--2------2--2--2---|
D|--(0)-(0)-(0)--(0)-(0)----(0)(0)(0)--|
A|-------------------------------------|
E|-------------------------------------|


verse: (i fell asleep while...)
     gtr 2
e|--------------------------------------------------|
B|--------------------------------------------------|
G|--7777777777--------------------------------------|
D|--7777777777--7777777777--5555555555--7777777777--| (2x)
A|--5555555555--7777777777--5555555555--7777777777--|
E|--------------5555555555--3333333333--5555555555--|

     gtr 1

e|--2222222222--0000000000--3333333333--0000000000--|
B|--3333333333--2222222222--3333333333--2222222222--|
G|--2222222222--2222222222--0000000000--2222222222--|
D|--0000000000--2222222222--0000000000--2222222222--| (2x)
A|--------------0000000000--2222222222--0000000000--|
E|--------------------------3333333333--------------|


pre-chorus: (they left me here alone...)
     gtr 2

e|---------------------------|       |---------------|
B|---------------------------|       |---------------|
G|---------------------------|       |--77777777777--|
D|--7777777777--5555555555---| (4x)  |--77777777777--|
A|--7777777777--5555555555---|       |--55555555555--|
E|--5555555555--3333333333---|       |---------------|

     gtr 1

e|--3333333333--0000000000---|       |--22222222222--|
B|--3333333333--2222222222---|       |--33333333333--|
G|--0000000000--2222222222---|       |--22222222222--|
D|--0000000000--2222222222---| (4x)  |--00000000000--|
A|--2222222222--0000000000---|       |---------------|
E|--3333333333---------------|       |---------------|


chorus: (nobody likes you,every one left you...)
     gtr 2
e|--------------------------------------------------|
B|--------------------------------------------------|
G|--7777777777--------------------------------------|
D|--7777777777--7777777777--5555555555--7777777777--| (2x)
A|--5555555555--7777777777--5555555555--7777777777--|
E|--------------5555555555--3333333333--5555555555--|

     gtr 1

e|--2222222222--0000000000--3333333333--0000000000--|
B|--3333333333--2222222222--3333333333--2222222222--|
G|--2222222222--2222222222--0000000000--2222222222--|
D|--0000000000--2222222222--0000000000--2222222222--| (2x)
A|--------------0000000000--2222222222--0000000000--|
E|--------------------------3333333333--------------|


chorus 2: (everyone left you,nobody likes you...)
     gtr 2

e|--------------------------------------------------|
B|--------------------------------------------------|
G|--7777777777--------------------------------------|
D|--7777777777--7777777777--5555555555--7777777777--| (2x)
A|--5555555555--7777777777--5555555555--7777777777--|
E|--------------5555555555--3333333333--5555555555--|

     gtr 1

e|--2222222222--0000000000--3333333333--0000000000--|
B|--3333333333--2222222222--3333333333--2222222222--|
G|--2222222222--2222222222--0000000000--2222222222--|
D|--0000000000--2222222222--0000000000--2222222222--| (2x)
A|--------------0000000000--2222222222--0000000000--|
E|--------------------------3333333333--------------|


last chord:

e|------||
B|------||
G|--7~--||
D|--7~--||
A|--5~--||
E|------||
_____________________________________________________________________________

"nobody likes you" is a part of "homecoming" song by Green Day.this song is
written and sung by Mike Dirnt.i tabbed it alone because billie joe often 
sings it (chorus part) before they play a song(especially "wake me up when 
september ends").so here it is ,it's alone XD.it's the best part of the song.
_____________________________________________________________________________

green day rocks!
LONG LIVE EARTH!XD [dr+pd++d]
Добавлено: 21.07.2012
Другие материалы по этой песне:
  • Аккорды и текст

Страница создана 21.07.2012
http://primanota.ru/green-day/nobody-likes-you-chords.htm
Привет, Гость.
Предлагаем пройти революционный курс по гитаре.
Подарок от PrimaNota.Ru, забирай!