PrimaNota.ru - самый крупный в мире бесплатный архив песенных текстов, аккордов, табулатур и нот


Green Day - Nimrod - таба, бас-таба, видео

Регистрация Запомнить меня
Войти через:  Facebook Google Twitter Vk Yandex Mail.ru

Green Day - Nimrod - таба, бас-таба, видео

Печатать
Просмотров: 175
----------------------------------------------------------------------------
			     Nimrod Album
----------------------------------------------------------------------------
Tabbed by: Danny Michalak
Email: Sachemwarriors92@aol.com

Tuning: Standard

I. Nice Guys Finish Last

Intro:
e|--------------------------------------------------------------------------|
B|--------------------------------------------------------------------------|
G|--------777777-----------4x-----------------------------------------------|
D|----777-777777--777777----------------------------------------------------|
A|----777-555555--777777--------------7----7----7----7----------------------|
E|----555---------555555------------55-5-55-5-55-5-55-5---------------------|

Verse 1: Guitar comes in at 00:28 seconds

e|--------------------------------------------------------------------------|
B|--------------------------------------------------------------------------|
G|-99999999----4x------------------9----------------------------------------|
D|-99999999---------77777777--2x---9----------------------------------------|
A|-77777777---------77777777-------7----------------------------------------|
E|------------------55555555------------------------------------------------|

Chorus:

e|--------------------------------------------------------------------------|
B|--------------------------------------------------------------------------|
G|---------------7-7-7-7--2x---9-9-9-9--2x---------------7-7-7-7--2x--------|
D|-7-7-7-7---2x--7-7-7-7-------9-9-9-9------7-7-7-7--2x--7-7-7-7------------|
A|-7-7-7-7-------5-5-5-5-------7-7-7-7------7-7-7-7------5-5-5-5------------|
E|-5-5-5-5----------------------------------5-5-5-5-------------------------|

e|--------------------------------------------------------------------------|
B|--------------------------------------------------------------------------|
G|-------------7-7-7-7--2x-9-9-9-9--2x------------------7-7-7-7--2x---------|
D|-7-7-7-7--2x-7-7-7-7-----7-9-9-9-------7-7-7-7---2x---5-7-7-7-------------|
A|-5-7-7-7-----5-5-5-5-----7-7-7-7-------7-7-7-7--------5-5-5-5-------------|
E|-5-5-5-5-------------------------------5-5-5-5----------------------------|

e|--------------------------------------------------------------------------|
B|--------------------------------------------------------------------------|
G_9-9-9-9---2x-------------2x-----------------------------------------------|
D|9-9-9-9--------7-7-7-7----------------------------------------------------|
A|7-7-7-7--------7-7-7-7----------------------------------------------------|
E|---------------5-5-5-5----------------------------------------------------|

Verse 2: same as verse 1

Chorus 2: same as chorus 1

Solo: Solo starts at 2:10

e|--------------------------------------------------------------------------|
B|--------------------------------------------------------------------------|
G|-7--------3x--7-----5--7--------------------------------------------------|
D|-7--7---------7--5--5--7--------------------------------------------------|
A|-5--7---------5--5--3--5--------------------------------------------------|
E|----5------------3--------------------------------------------------------|

Chorus 3: same as chorus 1 and 2

Outro: Bass comes in first, then guitar comes in at 2:46

e|--------------------------------------------------------------------------|
B|--------------------------------------------------------------------------|
G|--9-7---------------------------------------------------------------------|
D|--9-7-7-------------------------------------------------------------------|
A|--7-5-7-------------------------------------------------------------------|
E|------5-------------------------------------------------------------------|

I think the chorus is screwed up, but the rest shouldn't be bad.
____________________________________________________________________________


II. Hitchin' a Ride- Standard

Intro: Bass part transcribed for guitar

e|--------------------------------------------------------------------------|
B|--------------------------------------------------------------------------|
G|--------------------------------------------------------------------------|
D|-----------------------------------This plays through the first verse-----|
A|--------------------------------------------------------------------------|
E|--7-7-7-5-5-5-3-3-3-5-5-5-5-5-5-------------------------------------------|

Guitar comes in at 00:32 seconds

e|--------------------------------------------------------------------------|
B|--------------------------------------------------------------------------|
G|--------------------------------------------------------------------------|
D|-121212121212-777777------99775577--4x----Guitar rests until 1:08, then --|
A|-121212121212-777777------99775577--------repeats the whole thing---------|
E|-101010101010-555555------77553355----------------------------------------|

Chorus: Starts at 1:21

e|--------------------------------------------------------------------------|
B|--------------------------------------------------------------------------|
G|-7-7-7-7-9-9-9-9-10-10-9-9-7-7-5-5----------------------------------------|
D|-7-7-7-7-9-9-9-9-10-10-9-9-7-7-5-5-5-5-5-5-7-7----------------------------|
A|-5-5-5-5-7-7-7-7-8--8--7-7-5-5-3-3-5-3-5-5-7-7----------------------------|
E|-----------------------------------3-3-3-3-5-5----------------------------|

Solo: Guitar comes in at 1:48

e|--------------------------------------------------------------------------|
B|--------------------------------------------------------------------------|
G|-44444444-77777777-44444444-------------------44444444-77777777-----------|
D|-44444444-77777777-44444444-55555555-44444444-44444444-77777777-999999----|
A|-22222222-55555555-22222222-55555555-44444444-22222222-55555555-999999----|
E|----------------------------33333333-22222222-------------------777777----|

e|--------------------------------------------------------------------------|
B|--------------------------------------------------------------------------|
G|-------------------------------99-77----77-99-77----77-99-77----77----77--|
D|-10-10-10-10-10-10-10-10-10-10-99-77-99-77-99-77-99-77-99-77-99-77-99-77--|
A|-8--8--8--8--8--8--8--8--8--8--77-55-99-55-77-55-99-55-77-55-99-55-99-55--|
E|-------------------------------------77----------77----------77----77-----|

e|--------------------------------------------------------------------------|
B|--------------------------------------------------------------------------|
G|----77---7-9-7-9-7-9-7--9-9-9-9-9-9-9-------------------------------------|
D|-99-77-9-7-9-7-9-7-9-7--9-9-9-9-9-9-9-10-10-10-10-10-10-------------------|
A|-99-55-9-5-7-5-9-5-7-5--7-7-7-7-7-7-7-8--8--8--8--8--8--------------------|
E|-77----7------------------------------------------------------------------|

It then continues threw the chorus and ends.
____________________________________________________________________________

III. The Grouch- Standard

Verse
E|--------------------------------------------------------------------|
B|--------------------------------------------------------------------|
G|------------------------7-7-----------------------------------------|
D|-7-----2-2-----7--7-----7-7-----7--7-----2-2-----7--7-----2-2-------|
A|-7---X-2-2---X-7--7---X-5-5---X-7--7---X-2-2---X-7--7---X-2-2-------|
E|-5---X-0-0---X-5--5---X-------X-5--5---X-0-0---X-5--5---X-0-0-------|

E|--------------------------------------------------------------------|
B|--------------------------------------------------------------------|
G|------------------------7-7-----------------------------------------|
D|-7-----2-2-----7--7-----7-7-----7--7-----2-2-----7--7-----7-7-------|
A|-7---X-2-2---X-7--7---X-5-5---X-7--7---X-2-2---X-7--7---X-7-7-------|
E|-5---X-0-0---X-5--5---X-------X-5--5---X-0-0---X-5--5---X-5-5-------|

Chorus
E|--------------------------------------------------------------------|
B|--------------------------------------------------------------------|
G|-------7-7-------------------------------7-7-7-7----------9-9-9-9---|
D|-4-----7-7-----7-7-----2-2-----4-4-4-4-4-7-7-7-7--7-7-7-7-9-9-9-9---|
A|-4-----5-5-----7-7-----2-2-----4-4-4-4-4-5-5-5-5--7-7-7-7-7-7-7-7---|
E|-2---X-------X-5-5---X-0-0---X-2-2-2-2-2----------5-5-5-5-----------|

Solo
E|--------------------------------------------------------------------|
B|-5---5-5-5---5-5--7-----5-5---5-5--5---5-5-5---5-5--3-----5-5-------|
G|--------------------------------------------------------------------|
D|--------------------------------------------------------------------|
A|--------------------------------------------------------------------|
E|--------------------------------------------------------------------|

E|--------------------------------------------------------------------|
B|-0-2-2-2-2---0-2--2-3-3-3-3---2-/5---7---5-3-0----------------------|
G|--------------------------------------------------2-----------------|
D|--------------------------------------------------------------------|
A|--------------------------------------------------------------------|
E|--------------------------------------------------------------------|

E|-2-----3-3-----2--2-----0-0-----2--2-2-2-2-3-3-3-3--2-2-2-2-5-5-5\--|
B|-2-----3-3-----2--2-----0-0-----2--2-2-2-2-3-3-3-3--2-2-2-2-5-5-5\--|
G|--------------------------------------------------------------------|
D|--------------------------------------------------------------------|
A|--------------------------------------------------------------------|
E|--------------------------------------------------------------------|

                                                       Bend up^
E|-2-----3-3-----2--2-----0-0-----2--2-2-2-2-3-3-3-3-|-5-5-5-5-5-5-5\-|
B|-2-----3-3-----2--2-----0-0-----2--2-2-2-2-3-3-3-3-|-5-5-5-5-5-5-5\-|
G|---------------------------------------------------|----------------|
D|---------------------------------------------------|----------------|
A|---------------------------------------------------|----------------|
E|---------------------------------------------------|----------------|

End
E|-------------------------------------------------------------------------|
B|-------------------------------------------------------------------------|
G|-------------------------------------------------------------------------|
D|-7----2-2---7-7-7-7-7-7---7----2-2---7-7-7-7-7-7--7----2-2---7-7-7-7-7-7-|
A|-7-x--2-2---7-7-7-7-7-7---7-x--2-2---7-7-7-7-7-7--7-x--2-2---7-7-7-7-7-7-|
E|-5-x--0-0---5-5-5-5-5-5---5-x--0-0---5-5-5-5-5-5--5-x--0-0---5-5-5-5-5-5-|

E|-------------------------------------------------------------------------|
B|-------------------------------------------------------------------------|
G|------------7------------------------------------------------------------|
D|-7-7-7-7-7--7------------------------------------------------------------|
A|-7-7-7-7-7--5------------------------------------------------------------|
E|-5-5-5-5-5---------------------------------------------------------------|

____________________________________________________________________________

IV. Redundant- Standard

Intro
e--------------------------------------------------|
B------2-----------2----------2--------------------|
G--------2-----------2----------2------------------|
D----------2-----------2----------2---44444444-----|
A------------0----------0----------0--44444444-----|
E--5------------4----------2----------22222222-----|

Pre Verse
e---------------------------------------------------------|
B---------------------------------------------------------|
G----------77777777---------------9--9--------------------|
D--777777777777777777777777777----9--9--------------------|
A--777777775555555577777777777----7--7--------------------|
E--55555555--------55555555555----------------------------|


Verse
e-------------------------------------------|
B-------------------------------------------|
G----------777777777-------7----------------|
D--77777777777777777777777-7-77777777-------|
A--77777777555555555777777-5-77777777-------|
E--55555555---------555555---55555555-------|


e--------------------------------------|
B--------------------------------------|
G---------77777777---------------------|
D-777777777777777799999999999--5--5----|
A-777777775555555599999999999--5--5----|
E-55555555--------77777777777--3--3----|


e-------------------------------------------|
B-------------------------------------------|
G----------777777777-------7----------------|
D--77777777777777777777777-7-77777777-------|
A--77777777555555555777777-5-77777777-------|
E--55555555---------555555---55555555-------|

Pre Chorus
e---------------------------------------|
B---------------------------------------|
G---------77777777----------------------|
D-77777777777777779999999999999999------|
A-77777777555555559999999999999999------|
E-55555555--------7777777777777777------|

Chorus
e--------------------------------------------------|
B------2-----------2----------2--------------------|
G--------2-----------2----------2------------------|
D----------2-----------2----------2---44444444-----|
A------------0----------0----------0--44444444-----|
E--5------------4----------2----------22222222-----|


e---------------------------------------------------------|
B---------------------------------------------------------|
G----------77777777---------------9--9--------------------|
D--777777777777777777777777777----9--9--------------------|
A--777777775555555577777777777----7--7--------------------|
E--55555555--------55555555555----------------------------|


Verse 2
e-------------------------------------------|
B-------------------------------------------|
G----------777777777-------7----------------|
D--77777777777777777777777-7-77777777-------|
A--77777777555555555777777-5-77777777-------|
E--55555555---------555555---55555555-------|


e--------------------------------------|
B--------------------------------------|
G---------77777777---------------------|
D-777777777777777799999999999--5--5----|
A-777777775555555599999999999--5--5----|
E-55555555--------77777777777--3--3----|

e-------------------------------------------|
B-------------------------------------------|
G----------777777777-------7----------------|
D--77777777777777777777777-7-77777777-------|
A--77777777555555555777777-5-77777777-------|
E--55555555---------555555---55555555-------|

Pre Chorus
e---------------------------------------|
B---------------------------------------|
G---------77777777----------------------|
D-77777777777777779999999999999999------|
A-77777777555555559999999999999999------|
E-55555555--------7777777777777777------|

Chorus
e--------------------------------------------------|
B------2-----------2----------2--------------------|
G--------2-----------2----------2------------------|
D----------2-----------2----------2---44444444-----|
A------------0----------0----------0--44444444-----|
E--5------------4----------2----------22222222-----|


e---------------------------------------------------------|
B---------------------------------------------------------|
G----------77777777---------------9--9--------------------|
D--777777777777777777777777777----9--9--------------------|
A--777777775555555577777777777----7--7--------------------|
E--55555555--------55555555555----------------------------|


Solo  (after the second chorus there is a kinda solo, this sounds not too bad
       to myself but you don't have to play it.  It sounds as if it is based
       around the A chord.)
Played 2x
e----------------------0-----------------------------------|
B-------2------------2---2-------------2----2-------2------|
G-----2--2----------2-------2--------2---2--2------2---2---|
D---2------2------------------2----2--------2----2-------2-|
A-0-----------0--4---------------2-------------2----------2|
E----------------------------------------------------------|


e----------------------2-----------------------------------|
B-------2------------2---2----------2-----------2----2-2---|
G-----2---2--------2-------2------2---2-------2---2--2-2---|
D---2-------2-------------------2-------2---2--------2-2---|
A------------0----------------2-----------2----------------|
E-0-------------4------------------------------------------|


Chorus
e--------------------------------------------------|
B------2-----------2----------2--------------------|
G--------2-----------2----------2------------------|
D----------2-----------2----------2---44444444-----|
A------------0----------0----------0--44444444-----|
E--5------------4----------2----------22222222-----|

e---------------------------------------|
B---------------------------------------|
G----------77777777---------------------|
D--777777777777777777777777777777777----|
A--777777775555555577777777777777777----|
E--55555555--------55555555555555555----|

e--------------------------------------------------|
B------2-----------2----------2--------------------|
G--------2-----------2----------2------------------|
D----------2-----------2----------2---44444444-----|
A------------0----------0----------0--44444444-----|
E--5------------4----------2----------22222222-----|

e---------------------------------------|
B---------------------------------------|
G----------77777777---------------------|
D--777777777777777777777777777777777----|
A--777777775555555577777777777777777----|
E--55555555--------55555555555555555----|

Outro
e-----------------------------------------------|
B-----2-----------2-----------2-----------------|
G-------2-----------2-----------2---------------|
D---------2-----------2-----------2-------------|
A-----------0-----------0-----------0-----------|
E--5-----------4------------2----------0~-------|

____________________________________________________________________________

V. Scattered- Standard


intro/bridge
|---------------------------|-------------|
|---------------------------|-------------|
|-4--4--4-4-4-4-------------|-4-4-4-4-4-4-|
|-4--4--4-4-4-4-7-6-2-2-2-2-|-4-4-4-4-4-4-|
|-2--2--2-2-2-2-7-6-2-2-2-2-|-2-2-2-2-2-2-|
|---------------5-4-0-0-0-0-|-------------|

verse
|-----------------------------------------------------------------|
|-----------------------------------------------------------------|
|-----------------------------------------------------------------|
|-2-2-2-2-2-2-2-2-6-6-6-6-6-6-6-6-7-7-7-7-7-7-7-7-9-9-9-9-9-9-9-9-|
|-2-2-2-2-2-2-2-2-6-6-6-6-6-6-6-6-7-7-7-7-7-7-7-7-9-9-9-9-9-9-9-9-|
|-0-0-0-0-0-0-0-0-4-4-4-4-4-4-4-4-5-5-5-5-5-5-5-5-7-7-7-7-7-7-7-7-|

chorus
|-------------------------------------------------------------|
|-------------------------------------------------------------|
|-6-6-6-6-6-6-9-9-9-9-9-9-------------------------------------|
|-6-6-6-6-6-6-9-9-9-9-9-9-9-9-9-9-9-9-7-7-7-7-7-7-4-4-4-4-4-4-|
|-4-4-4-4-4-4-7-7-7-7-7-7-9-9-9-9-9-9-7-7-7-7-7-7-4-4-4-4-4-4-|
|-------------------------7-7-7-7-7-7-5-5-5-5-5-5-2-2-2-2-2-2-|

----------------------------------|
----------------------------------|
-------------9--9-9--9--9-9-9-9-9-|
-7-7-7-7-7-7-9--9-9--9--9-9-9-9-9-|
-7-7-7-7-7-7-7--7-7--7--7-7-7-7-7-|
-5-5-5-5-5-5----------------------|

____________________________________________________________________________

VI. All The Time- Standard


intro/chorus
|------------|-------------|
|------------|-------------|
|-9-9--7-----|-9-9-9-9-9-9-|
|-9-9--7--7--|-9-9-9-9-9-9-|
|-7-7--5--7--|-7-7-7-7-7-7-|
|---------5--|-------------|


verse
|---------------------------------------|
|---------------------------------------|
|---------------------------7-7-7-7-7-7-|
|-6/7-7-7-7-7-7-5-5-5-5-5-5-7-7-7-7-7-7-|
|-6/7-7-7-7-7-7-5-5-5-5-5-5-5-5-5-5-5-5-|
|-4/5-5-5-5-5-5-3-3-3-3-3-3-------------|

bridge
|------------------|
|------------------|
|---6-7-6----4-5-4-|
|-7-6-7-6--5-4-5-4-|
|-7-4-5-4--5-2-3-2-|
|-5--------3-------|

____________________________________________________________________________

VII. Worry Rock- Standard

verse
|-----------------------------------------------------------------|
|-----------------------------------------------------------------|
|-9-9-9-9-9-9-9-9-4-4-4-4-4-4-4-4-----------------9-9-9-9-9-9-9-9-|
|-9-9-9-9-9-9-9-9-4-4-4-4-4-4-4-4-7-7-7-7-7-7-7-7-9-9-9-9-9-9-9-9-|
|-7-7-7-7-7-7-7-7-2-2-2-2-2-2-2-2-7-7-7-7-7-7-7-7-7-7-7-7-7-7-7-7-|
|---------------------------------5-5-5-5-5-5-5-5-----------------|

-----------------------------------------------------------------|
-----------------------------------------------------------------|
-------------------------------------------------4-4-4-4-4-4-4-4-|
-7-7-7-7-7-7-7-7-2-2-2-2-2-2-2-2-7-7-7-7-7-7-7-7-4-4-4-4-4-4-4-4-|
-7-7-7-7-7-7-7-7-2-2-2-2-2-2-2-2-7-7-7-7-7-7-7-7-2-2-2-2-2-2-2-2-|
-5-5-5-5-5-5-5-5-0-0-0-0-0-0-0-0-5-5-5-5-5-5-5-5-----------------|

chorus
|-----------------------------------------------------------------|
|-----------------------------------------------------------------|
|-6-6-6-6-6-6-6-6-------------------------------------------------|
|-6-6-6-6-6-6-6-6-6-6-6-6-6-6-6-6-7-7-7-7-7-7-7-7-2-2-2-2-2-2-2-2-|
|-4-4-4-4-4-4-4-4-6-6-6-6-6-6-6-6-7-7-7-7-7-7-7-7-2-2-2-2-2-2-2-2-|
|-----------------4-4-4-4-4-4-4-4-5-5-5-5-5-5-5-5-0-0-0-0-0-0-0-0-|

-----------------------------------------------------------------|
-----------------------------------------------------------------|
-6-6-6-6-6-6-6-6---------------------------------4-4-4-4-4-4-4-4-|
-6-6-6-6-6-6-6-6-6-6-6-6-6-6-6-6-4-4-4-4-4-4-4-4-4-4-4-4-4-4-4-4-|
-4-4-4-4-4-4-4-4-6-6-6-6-6-6-6-6-4-4-4-4-4-4-4-4-2-2-2-2-2-2-2-2-|
-----------------4-4-4-4-4-4-4-4-2-2-2-2-2-2-2-2-----------------|

solo
|--------------------------------------------------------------|
|--------------------------------------------------------------|
|--------------------------------------------------------------|
|--------------------------------------------------------------|
|-------------2-------/6---4---2----0---4---2---0----2---------|
|-0-----4-5--------4-----------------------------------5-4-----|

D--------------------------------------------------------------|
A-----4---2--------2-------------------------------------------|
E-5-----------5--------4---0--------5---5---5---4----4---2-----|

------------------------------------------------------------------|
-5-5-5-5-5-4-4-4--5/7---5-5-0-2-2-2-0-2-2-2-0-2-2-4-2---0-0-0-2-2-|
------------------------------------------------------------------|
------------------------------------------------------------------|
------------------------------------------------------------------|
------------------------------------------------------------------|

----------------------------------------------/7-7-5-5-4-4-2\-|
-2-0-2-2-2-0-2-2-4-2---0-0---2-2-4-4-5-5-5-5-5/7-7-5-5-4-4-2\-|
--------------------------------------------------------------|
--------------------------------------------------------------|
--------------------------------------------------------------|
--------------------------------------------------------------|

____________________________________________________________________________

VIII. Platypus- Standard

intro:
|-----------------|
|-----------------|
|-----------------|
|-9-9-9-9-9-9-5-4-|
|-9-9-9-9-9-9-5-4-|
|-7-7-7-7-7-7-3-2-|

|---------------------------------------------------------------|
|---------------------------------------------------------------|
|-----------------9-9-9-9--------------------------9------------|
|-9-9-9-9-7-7-7-7-9-9-9-9-9-9-9-9--9-9-9-9-7-7-7-7-9------4-5-7-|
|-9-9-9-9-7-7-7-7-7-7-7-7-9-9-9-9--9-9-9-9-7-7-7-7-7------4-5-7-|
|-7-7-7-7-5-5-5-5---------7-7-7-7--7-7-7-7-5-5-5-5--------2-3-5-|

verse
|---------------------------------|
|---------------------------------|
|-----------------9-9-9-9---------|
|-9-9-9-9-7-7-7-7-9-9-9-9-9-9-9-9-|
|-9-9-9-9-7-7-7-7-7-7-7-7-9-9-9-9-|
|-7-7-7-7-5-5-5-5---------7-7-7-7-|

chorus
|-----------------------------------------------------------------|
|-----------------------------------------------------------------|
|-----------------------------------------9-9-9-------------------|
|-7-7-7-7-7-7-7-7-7-7-7-7-7-7-7-7-7-7-7-7-9-9-9-9-9-9-9-9-9-9-9-9-|
|-7-7-7-7-7-7-7-7-7-7-7-7-7-7-7-7-7-7-7-7-7-7-7-9-9-9-9-9-9-9-9-9-|
|-5-5-5-5-5-5-5-5-5-5-5-5-5-5-5-5-5-5-5-5-------7-7-7-7-7-7-7-7-7-|

-----------------------------------------------------------------|
-----------------------------------------------------------------|
-----------------------------------------------------------------|
-7-7-7-7-7-7-7-7-7-7-7-7-7-7-7-7-7-7-7-7-4-4-4-4-4-4-4-4-4-4-4-4-|
-7-7-7-7-7-7-7-7-7-7-7-7-7-7-7-7-7-7-7-7-4-4-4-4-4-4-4-4-4-4-4-4-|
-5-5-5-5-5-5-5-5-5-5-5-5-5-5-5-5-5-5-5-5-2-2-2-2-2-2-2-2-2-2-2-2-|

---------------------------------------------|
---------------------------------------------|
-9-9-9-------------9-9-9---------------------|
-9-9-9-9-9-9-9-9-9-9-9-9-9-9-9-9-9-9-9-9-9-9-|
-7-7-7-9-9-9-9-9-9-7-7-7-9-9-9-9-9-9-9-9-9-9-|
-------7-7-7-7-7-7-------7-7-7-7-7-7-7-7-7-7-|

____________________________________________________________________________

IX. Uptight- Standard

intro:
PM throughout
  F#
e|------------------|-----------------|
B|------------------|-----------------|
G|------------------|-----------------|
D|---------3-3-3-1--|---3--1-------1--|
A|---------X-X-X-X--|---X--X-------X-2|
E|---2-2-2-2-2-2-2-2|-2-2--2-2-2-2-2--|
   B
e|------------------|-----------------|
B|------------------|-----------------|
G|------------------|-----------------|
D|----4-4-3-3-------|--3-1---4-4-3----|
A|--2-2-2-2-2-2-2-2-|2-2-2-2-2-2-2-4--|
E|------------------|-----------------|
   F#
e|------------------|-----------------|
B|------------------|-----------------|
G|------------------|-----------------|
D|---------3-3-3-1--|---3--1-------1--|
A|---------X-X-X-X--|---X--X-------X-2|
E|---2-2-2-2-2-2-2-2|-2-2--2-2-2-2-2--|

e|-----------------|------------------|
B|-----------------|------------------|
G|-----------------|-----------6-6----|
D|----4-4-3-3------|---3-1-4-4-6-6----|
A|--2-2-2-2-2-2-2-2|-2-2-2-2-2-4-4----|
E|-----------------|------------------|

verse 1:

     I                woke up on the
e|------------------|-----------------|
B|------------------|-----------------|
G|------------------|-----------------|
D|---------3-3-3-1--|---3--1-------1--|
A|---------X-X-X-X--|---X--X-------X-2|
E|---2-2-2-2-2-2-2-2|-2-2--2-2-2-2-2--|

wrong side of the floor
e|------------------|-----------------|
B|------------------|-----------------|
G|------------------|-----------------|
D|----4-4-3-3-------|--3-1---4-4-3----|
A|--2-2-2-2-2-2-2-2-|2-2-2-2-2-2-2-4--|
E|------------------|-----------------|
    Made	     made my way through
e|------------------|-----------------|
B|------------------|-----------------|
G|------------------|-----------------|
D|---------3-3-3-1--|---3--1-------1--|
A|---------X-X-X-X--|---X--X-------X-2|
E|---2-2-2-2-2-2-2-2|-2-2--2-2-2-2-2--|

   the front door
e|------------------|-----------------|
B|------------------|-----------------|
G|------------------|-----------------|
D|----4-4-3-3-------|--3-1---4-4-3----|
A|--2-2-2-2-2-2-2-2-|2-2-2-2-2-2-2-4--|
E|------------------|-----------------|
  Broke              my engagement
e|------------------|-----------------|
B|------------------|-----------------|
G|------------------|-----------------|
D|---------3-3-3-1--|---3--1-------1--|
A|---------X-X-X-X--|---X--X-------X-2|
E|---2-2-2-2-2-2-2-2|-2-2--2-2-2-2-2--|

    with myself
e|------------------|-----------------|
B|------------------|-----------------|
G|------------------|-----------------|
D|----4-4-3-3-------|--3-1---4-4-3----|
A|--2-2-2-2-2-2-2-2-|2-2-2-2-2-2-2-4--|
E|------------------|-----------------|

pre-chorus:
PM throughout

   Perfect picture of bad health

e|----------------------------------|
B|----------------------------------|
G|--6-6-6-6-6-6-6-4-4-4-4-4-4-4-4-4-|
D|--6-6-6-6-6-6-6-4-4-4-4-4-4-4-4-4-|
A|--4-4-4-4-4-4-4-2-2-2-2-2-2-2-2-2-|
E|----------------------------------|

   Another notch scratched on my belt
e|----------------------------------|
B|----------------------------------|
G|--6-6-6-6-6-6-6-4-4-4-4-4-4-4-4-4-|
D|--6-6-6-6-6-6-6-4-4-4-4-4-4-4-4-4-|
A|--4-4-4-4-4-4-4-2-2-2-2-2-2-2-2-2-|
E|----------------------------------|

   The future just ain't what it used
e|----------------------------------|
B|----------------------------------|
G|--6-6-6-6-6-6-6-4-4-4-4-4-4-4-4-4-|
D|--6-6-6-6-6-6-6-4-4-4-4-4-4-4-4-4-|
A|--4-4-4-4-4-4-4-2-2-2-2-2-2-2-2-2-|
E|----------------------------------|

play rhy. fig 1 again:

to be
  F#
e|------------------|-----------------|
B|------------------|-----------------|
G|------------------|-----------------|
D|---------3-3-3-1--|---3--1-------1--|
A|---------X-X-X-X--|---X--X-------X-2|
E|---2-2-2-2-2-2-2-2|-2-2--2-2-2-2-2--|
   B
e|------------------|-----------------|
B|------------------|-----------------|
G|------------------|-----------------|
D|----4-4-3-3-------|--3-1---4-4-3----|
A|--2-2-2-2-2-2-2-2-|2-2-2-2-2-2-2-4--|
E|------------------|-----------------|
   F#
e|------------------|-----------------|
B|------------------|-----------------|
G|------------------|-----------------|
D|---------3-3-3-1--|---3--1-------1--|
A|---------X-X-X-X--|---X--X-------X-2|
E|---2-2-2-2-2-2-2-2|-2-2--2-2-2-2-2--|

e|-----------------|------------------|
B|-----------------|------------------|
G|-----------------|-----------6-6----|
D|----4-4-3-3------|---3-1-4-4-6-6----|
A|--2-2-2-2-2-2-2-2|-2-2-2-2-2-4-4----|
E|-----------------|------------------|

verse 2:
    I 		     got a new start on
e|------------------|-----------------|
B|------------------|-----------------|
G|------------------|-----------------|
D|---------3-3-3-1--|---3--1-------1--|
A|---------X-X-X-X--|---X--X-------X-2|
E|---2-2-2-2-2-2-2-2|-2-2--2-2-2-2-2--|

   dead end road
e|------------------|-----------------|
B|------------------|-----------------|
G|------------------|-----------------|
D|----4-4-3-3-------|--3-1---4-4-3----|
A|--2-2-2-2-2-2-2-2-|2-2-2-2-2-2-2-4--|
E|------------------|-----------------|

peaked		     peaked out on
e|------------------|-----------------|
B|------------------|-----------------|
G|------------------|-----------------|
D|---------3-3-3-1--|---3--1-------1--|
A|---------X-X-X-X--|---X--X-------X-2|
E|---2-2-2-2-2-2-2-2|-2-2--2-2-2-2-2--|


 reaching new lows
e|------------------|-----------------|
B|------------------|-----------------|
G|------------------|-----------------|
D|----4-4-3-3-------|--3-1---4-4-3----|
A|--2-2-2-2-2-2-2-2-|2-2-2-2-2-2-2-4--|
E|------------------|-----------------|

Owed		     paid up all  my
e|------------------|-----------------|
B|------------------|-----------------|
G|------------------|-----------------|
D|---------3-3-3-1--|---3--1-------1--|
A|---------X-X-X-X--|---X--X-------X-2|
E|---2-2-2-2-2-2-2-2|-2-2--2-2-2-2-2--|

debts to myself
e|------------------|-----------------|
B|------------------|-----------------|
G|------------------|-----------------|
D|----4-4-3-3-------|--3-1---4-4-3----|
A|--2-2-2-2-2-2-2-2-|2-2-2-2-2-2-2-4--|
E|------------------|-----------------|

prechorus:


   Perfect picture of bad health

e|----------------------------------|
B|----------------------------------|
G|--6-6-6-6-6-6-6-4-4-4-4-4-4-4-4-4-|
D|--6-6-6-6-6-6-6-4-4-4-4-4-4-4-4-4-|
A|--4-4-4-4-4-4-4-2-2-2-2-2-2-2-2-2-|
E|----------------------------------|
PM  |-------------------------------|

   Another notch scratched on my belt
e|----------------------------------|
B|----------------------------------|
G|--6-6-6-6-6-6-6-4-4-4-4-4-4-4-4-4-|
D|--6-6-6-6-6-6-6-4-4-4-4-4-4-4-4-4-|
A|--4-4-4-4-4-4-4-2-2-2-2-2-2-2-2-2-|
E|----------------------------------|
PM  |-------------------------------|

   The future 's in my living room
e|------------------------------------|
B|------------------------------------|
G|--6-6-6-6-6-6-6-4-4-4-4-4-4-4-4-4---|
D|--6-6-6-6-6-6-6-4-4-4-4-4-4-4-4-4---|
A|--4-4-4-4-4-4-4-2-2-2-2-2-2-2-2-2---|
E|------------------------------------|
PM  |---------------------------------|gradually release

Chorus:
    UP-TIGHT  I'm a nag     with a gun, yeah
e|---------------------------------------|
B|---------------------------------------|
G|--------------4----------4-4-4-4-4-4-4-|
D|--4---4---4-4-4----------4-4-4-4-4-4-4-|
A|--4---4---4-4-2----------2-2-2-2-2-2-2-|
E|--2---2---2-2--------------------------|
    ALL-NIGHT  suicide's last   I've been
e|---------------------------------------|
B|---------------------------------------|
G|--------------4----------4-4-4-4-4-4-4-|
D|--4---4---4-4-4----------4-4-4-4-4-4-4-|
A|--4---4---4-4-2----------2-2-2-2-2-2-2-|
E|--2---2---2-2--------------------------|

    all night             I'm a son of a gun
e|---------------------------------------|
B|---------------------------------------|
G|--------------6----------6-6-6-6-6-6-6-|
D|--4---4---4-4-6----------6-6-6-6-6-6-6-|
A|--4---4---4-4-4----------4-4-4-4-4-4-4-|
E|--2---2---2-2--------------------------|


e|---------------------------------------|
B|---------------------------------------|
G|------------------4-4-4---x--6-6-------|
D|--4---4---4-4-4-4-4-4-4---x--6-6-------|
A|--4---4---4-4-4-4-2-2-2---x--4-4-------|
E|--2---2---2-2-2-2----------------------|repeat

Interlude:
rhy. guitar plays chords indicated below:
lead plays tab:
    F#
e|---------------------------|---------------------------|
B|---------------------------|---------------------------|
G|--11-11-11--10-10-10--11-11|-11--10-10-10--11-11--10-10|
D|--x--x--x---x--x--x---x--x-|-x---x--x--x---x--x---x--x-|
A|--9--9--9---8--8--8---9--9-|-9---8--8--8---9--9---8--8-|
E|---------------------------|---------------------------|
    B
e|---------------------------|---------------------------|
B|---------------------------|---------------------------|
G|--11-11-11--10-10-10--11-11|-11--10-10-10--11-11--10-10|
D|--x--x--x---x--x--x---x--x-|-x---x--x--x---x--x---x--x-|
A|--9--9--9---8--8--8---9--9-|-9---8--8--8---9--9---8--8-|
E|---------------------------|---------------------------|play 4 times

Chorus:
    UP-TIGHT  I'm a nag     with a gun, yeah
e|---------------------------------------|
B|---------------------------------------|
G|--------------4----------4-4-4-4-4-4-4-|
D|--4---4---4-4-4----------4-4-4-4-4-4-4-|
A|--4---4---4-4-2----------2-2-2-2-2-2-2-|
E|--2---2---2-2--------------------------|
    ALL-NIGHT  suicide's last   I've been
e|---------------------------------------|
B|---------------------------------------|
G|--------------4----------4-4-4-4-4-4-4-|
D|--4---4---4-4-4----------4-4-4-4-4-4-4-|
A|--4---4---4-4-2----------2-2-2-2-2-2-2-|
E|--2---2---2-2--------------------------|

    all night             I'm a son of a gun
e|---------------------------------------|
B|---------------------------------------|
G|--------------6----------6-6-6-6-6-6-6-|
D|--4---4---4-4-6----------6-6-6-6-6-6-6-|
A|--4---4---4-4-4----------4-4-4-4-4-4-4-|
E|--2---2---2-2--------------------------|


e|---------------------------------------|
B|---------------------------------------|
G|------------------4-4-4---x--6-6-------|
D|--4---4---4-4-4-4-4-4-4---x--6-6-------|
A|--4---4---4-4-4-4-2-2-2---x--4-4-------|
E|--2---2---2-2-2-2----------------------|repeatX2

then end like this:
e|----------------------------------6-------|
B|----------------------------------6-------|
G|------------------4-4-4---x--6-6--7-------|
D|--4---4---4-4-4-4-4-4-4---x--6-6--8-------|
A|--4---4---4-4-4-4-2-2-2---x--4-4--8-------|
E|--2---2---2-2-2-2-----------------6-------|

____________________________________________________________________________

X. Last Ride In- Standard

riff
|-------------------------------|
|-------------------------------|
|-------------------------------|
|-------------------------------|
|-2-----2--0------2-4--4-0-2----|
|----2--------------------------|

riff 2
|-----0------------------------0------------------------0----|
|--------0------------------------0------------------------0-|
|------------------------------------------------------------|
|-2------------4-----------2------------4-----------2--------|
|-2------------4-----------2------------4-----------2--------|
|-0------------2-----------0------------2-----------0--------|

-----------------------------2---------------|
-----------------------------2---------------|
-----------------------------2---------------|
-2---------2----4---------4------------------|
-2---------2----4---------4------------------|
-0---------0----2---------2------------------|

____________________________________________________________________________

XI. Jinx- Standard

intro
|-----------------------------|
|-----------------------------|
|-----5-5-5-5-7-7-7-7-7-7-7-7-|
|-5-5-5-5-5-5-7-7-7-7-7-7-7-7-|
|-5-5-3-3-3-3-5-5-5-5-5-5-5-5-|
|-3-3-------------------------|

verse
|-----------------------------------------------------|
|-----------------------------------------------------|
|-----------7-7-7-7-7-7-7-7-------5-5-5---------------|
|-5-5-5-5-5-7-7-7-7-7-7-7-7-5-5-5-5-5-5-5-5-5-5-5-5-5-|
|-5-5-5-5-5-5-5-5-5-5-5-5-5-5-5-5-3-3-3-5-5-5-5-5-5-5-|
|-3-3-3-3-3-----------------3-3-3-------3-3-3-3-3-3-3-|

-----------------------------------------------------|
-----------------------------------------------------|
-5-5-5-5-5-5-5-5-5-5-5-5-5---------------------------|
-5-5-5-5-5-5-5-5-5-5-5-5-5-5-5-5-5-5-5-5-5-5-5-5-5-5-|
-3-3-3-3-3-3-3-3-3-3-3-3-3-5-5-5-5-5-5-5-5-5-5-5-5-5-|
---------------------------3-3-3-3-3-3-3-3-3-3-3-3-3-|

-----------------------------------------------------|
-----------------------------------------------------|
-5-5-5-5-5-5-5-5-5-5-5-5-5-----7-7-7-9-9-9-9-9-9-9-9-|
-5-5-5-5-5-5-5-5-5-5-5-5-5-5-5-7-7-7-9-9-9-9-9-9-9-9-|
-3-3-3-3-3-3-3-3-3-3-3-3-3-5-5-5-5-5-7-7-7-7-7-7-7-7-|
---------------------------3-3-----------------------|

G-5-5-5-5-5-----------------7-7-7-7-7-7-7-7-7-7-7-7-7-|
D-5-5-5-5-5-3-3-3-3-3-3-3-3-7-7-7-7-7-7-7-7-7-7-7-7-7-|
A-3-3-3-3-3-3-3-3-3-3-3-3-3-5-5-5-5-5-5-5-5-5-5-5-5-5-|
E-----------1-1-1-1-1-1-1-1---------------------------|

chorus
|-----------------------------------------------------|
|-----------------------------------------------------|
|-----------5-5-5-5-5-5-5-7-7-7-7-7-7-7-7-7-7-7-7-7-7-|
|-5-5-5-5-5-5-5-5-5-5-5-5-7-7-7-7-7-7-7-7-7-7-7-7-7-7-|
|-5-5-5-5-5-3-3-3-3-3-3-3-5-5-5-5-5-5-5-5-5-5-5-5-5-5-|
|-3-3-3-3-3-------------------------------------------|

____________________________________________________________________________

XII. Haushinka- Standard

intro
|---------|
|---------|
|-5-7:----|
|-5-7:----|
|-3-5:----|
|---------|

verse
|-----------------------|
|-7-----8----10-----8---|
|---7-----7-----7-----7-|
|-----------------------|
|-----------------------|
|-----------------------|

chorus
|-------------------------------------------------------------|
|-------------------------------------------------------------|
|-7-7-7-7-7-7-7-7-5-5-5-5-5-5-5-5-----------------------------|
|-7-7-7-7-7-7-7-7-5-5-5-5-5-5-5-5-5-5-5-5-5-5-5-5-3-3-3-3-5-5-|
|-5-5-5-5-5-5-5-5-3-3-3-3-3-3-3-3-5-5-5-5-5-5-5-5-3-3-3-3-5-5-|
|---------------------------------3-3-3-3-3-3-3-3-1-1-1-1-3-3-|

bridge
|-------------------------------------------------------------|
|-------------------------------------------------------------|
|-------------------------------------------------------------|
|-9-9-9-9-9-9-9-7-7-7-7-7-7-7-4/5-5-5-5-5-5-5-4/5-5-5-5-5-5-5-|
|-9-9-9-9-9-9-9-7-7-7-7-7-7-7-4/5-5-5-5-5-5-5-4/5-5-5-5-5-5-5-|
|-7-7-7-7-7-7-7-5-5-5-5-5-5-5-2/3-3-3-3-3-3-3-2/3-3-3-3-3-3-3-|
pm_______________________________|
|-------------------------------------------------------|
|-------------------------------------------------------|
|-------------------------------------------------------|
|-5-5-5-5-5-5-5-5-5-5-5-5-5-5-5-5-5-5-5-5-5-5-5-5-5-5-5-|
|-5-5-5-5-5-5-5-5-5-5-5-5-5-5-5-5-5-5-5-5-5-5-5-5-5-5-5-|
|-3-3-3-3-3-3-3-3-3-3-3-3-3-3-3-3-3-3-3-3-3-3-3-3-3-3-3-|


post bridge
|-----------------------------|
|-----------------------------|
|-------7-7-7-----------------|
|-7-7-7-7-7-7-5-5-5-5-5-7-7-7-|
|-7-7-7-5-5-5-5-5-5-5-5-7-7-7-|
|-5-5-5-------3-3-3-3-3-5-5-5-|
____________________________________________________________________________

XIII. Walking Alone- Standard

intro
|-----------------------------------------------------------------|
|-----------------------------------------------------------------|
|-----------------------------------------------------------------|
|-5-5-5-5-5-5-5-5-2-2-2-2-2-2-2-2-5-5-5-5-5-5-5-5-2-2-2-2-2-2-2-2-|
|-5-5-5-5-5-5-5-5-2-2-2-2-2-2-2-2-5-5-5-5-5-5-5-5-2-2-2-2-2-2-2-2-|
|-3-3-3-3-3-3-3-3-0-0-0-0-0-0-0-0-3-3-3-3-3-3-3-3-0-0-0-0-0-0-0-0-|

verse
|-----------------------------------------------------------------|
|-----------------------------------------------------------------|
|---------------------------------5-5-5-5-5-5-5-5-7-7-7-7-7-7-7-7-|
|-5-5-5-5-5-5-5-5-2-2-2-2-2-2-2-2-5-5-5-5-5-5-5-5-7-7-7-7-7-7-7-7-|
|-5-5-5-5-5-5-5-5-2-2-2-2-2-2-2-2-3-3-3-3-3-3-3-3-5-5-5-5-5-5-5-5-|
|-3-3-3-3-3-3-3-3-0-0-0-0-0-0-0-0---------------------------------|

chorus
|-----------------------------------------------------------------|
|-----------------------------------------------------------------|
|-5-5-5-5-5-5-5-5-7-7-7-7-7-7-7-7-5-5-5-5-5-5-5-5-7-7-7-7-7-7-7-7-|
|-5-5-5-5-5-5-5-5-7-7-7-7-7-7-7-7-5-5-5-5-5-5-5-5-7-7-7-7-7-7-7-7-|
|-3-3-3-3-3-3-3-3-5-5-5-5-5-5-5-5-3-3-3-3-3-3-3-3-5-5-5-5-5-5-5-5-|
|-----------------------------------------------------------------|

|-------------------------------------------------------|
|---3-----1---------------------------------------------|
|---4-----2-------------5-5-5-5-5-5-5-5-7-7-7-7-7-7-7-7-|
|-5-5---3-3----2-2-2----5-5-5-5-5-5-5-5-7-7-7-7-7-7-7-7-|
|-5-----3------2-2-2----3-3-3-3-3-3-3-3-5-5-5-5-5-5-5-5-|
|-3-----1------0-0-0------------------------------------|

solo
|---------------------------------------------------|
|-8-------------------------------------------------|
|---7---9b----------9----12-9--------11----14-11----|
|-----9--------9-10---10------10--12----12-------12-|
|---------------------------------------------------|
|---------------------------------------------------|

____________________________________________________________________________

XIV. Reject- Standard

verse
|-----------------------------------------------------------------|
|-----------------------------------------------------------------|
|-4-4-4-4-4-4-4-4-4-4-4-4-4-4-4-4---------------------------------|
|-4-4-4-4-4-4-4-4-4-4-4-4-4-4-4-4-6-6-6-6-6-6-6-6-6-6-6-6-6-6-6-6-|
|-2-2-2-2-2-2-2-2-2-2-2-2-2-2-2-2-6-6-6-6-6-6-6-6-6-6-6-6-6-6-6-6-|
|---------------------------------4-4-4-4-4-4-4-4-4-4-4-4-4-4-4-4-|


-----------------------------------------------------------------|
-----------------------------------------------------------------|
-6-6-6-6-6-6-6-6-6-6-6-6-6-6-6-6---------------------------------|
-6-6-6-6-6-6-6-6-6-6-6-6-6-6-6-6-4-4-4-4-4-4-4-4-4-4-4-4-4-4-4-4-|
-4-4-4-4-4-4-4-4-4-4-4-4-4-4-4-4-4-4-4-4-4-4-4-4-4-4-4-4-4-4-4-4-|
---------------------------------2-2-2-2-2-2-2-2-2-2-2-2-2-2-2-2-|

chorus
|-----------------------------------------------------------------|
|-----------------------------------------------------------------|
|---------------------------------4-4-4-4-4-4-4-4-4-4-4-4-4-4-4-4-|
|-2-2-2-2-2-2-2-2-5-5-5-5-5-5-5-5-4-4-4-4-4-4-4-4-4-4-4-4-4-4-4-4-|
|-2-2-2-2-2-2-2-2-5-5-5-5-5-5-5-5-2-2-2-2-2-2-2-2-2-2-2-2-2-2-2-2-|
|-0-0-0-0-0-0-0-0-3-3-3-3-3-3-3-3---------------------------------|

|----------------------------------------------|
|----------------------------------------------|
|---------4-4-4-4-4-4-4------------------------|
|-2-2-x-x-4-4-4-4-4-4-4--2-2-x-x-6-6-6-6-6-6-6-|
|-2-2-x-x-2-2-2-2-2-2-2--2-2-x-x-6-6-6-6-6-6-6-|
|-0-0-x-x----------------0-0-x-x-4-4-4-4-4-4-4-|

-----------------------------------------------------|
-----------------------------------------------------|
-----------------------------------------------------|
-5-5-5-5-5-5-5-5-5-5-5-5-5-4-4-4-4-4-4-4-4-4-4-4-4-4-|
-5-5-5-5-5-5-5-5-5-5-5-5-5-4-4-4-4-4-4-4-4-4-4-4-4-4-|
-3-3-3-3-3-3-3-3-3-3-3-3-3-2-2-2-2-2-2-2-2-2-2-2-2-2-|

post chorus
|----------------------------|
|----------------------------|
|-----------9----------------|
|-9-9-9-9-9-9---9-9-9-9-9-7--|
|-9-9-9-9-9-7---9-9-9-9-9-7--|
|-7-7-7-7-7-----7-7-7-7-7-5--|

|--------------------------|
|--------------------------|
|-----4--4-4-4-4-----------|
OUTRO   |-2-5-4--4-4-4-4---|
|-2-5-2--2-2-2-2-----------|
|-0-3----------------------|

____________________________________________________________________________

XV. Take Back- Standard

verse
|--------------------------------|
|--------------------------------|
|--------------------------------|
|-9--9--9--9-9-7-7-7-10-10-10-10-|
|-9--9--9--9-9-7-7-7-10-10-10-10-|
|-7--7--7--7-7-5-5-5--8--8--8--8-|

chorus
|----------------------------|
|----------------------------|
|-8--8--8--8-8-------9-9-9-9-|
|-8--8--8--8-8-8-8-8-9-9-9-9-|
|-6--6--6--6-6-8-8-8-7-7-7-7-|
|--------------6-6-6---------|

____________________________________________________________________________

XVI. King For A Day- Standard

verse
|---------------------------------|
|---------------------------------|
|-9-x-----9-x-----6-x-----6-x-----|
|-9-x-9-x-9-x-9-x-6-x-6-x-6-x-6-x-|
|-7-x-9-x-7-x-9-x-4-x-6-x-4-x-6-x-|
|-----7-x-----7-x-----4-x-----4-x-|

post verse
|---------------------------------|
|---------------------------------|
|---------------------------------|
|-7-7-7-7-7-7-7-7-9-9-9-9-9-9-9-9-|
|-7-7-7-7-7-7-7-7-9-9-9-9-9-9-9-9-|
|-5-5-5-5-5-5-5-5-7-7-7-7-7-7-7-7-|

chorus
|---------------------------------|
|---------------------------------|
|-9-x-----9-x-----6-6-6-6-6-6-6-6-|
|-9-x-9-x-9-x-9-x-6-6-6-6-6-6-6-6-|
|-7-x-9-x-7-x-9-x-4-4-4-4-4-4-4-4-|
|-----7-x-----7-x-----------------|

____________________________________________________________________________
Добавлено: 08.08.2013
Другие материалы по этой песне:
  • Аккорды и текст

Страница создана 08.08.2013
http://primanota.ru/green-day/nimrod-chords.htm
Привет, Гость.
Предлагаем пройти революционный курс по гитаре.
Подарок от PrimaNota.Ru, забирай!