PrimaNota.ru - самый крупный в мире бесплатный архив песенных текстов, аккордов, табулатур и нот


Green Day - Minorty - аккорды и текст, видео

Регистрация Запомнить меня
Войти через:  Facebook Google Twitter Vk Yandex Mail.ru

Green Day - Minorty - аккорды и текст, видео

Печатать
Просмотров: 170
Minorty
Green Day
Intro is acoustic
 

C G F C C G
-----------|-------3---|-------0---|-----------|-----------|-------3---|
-------1---|-----3---3-|-----1---1-|-------1---|-------1---|-----3---3-|
-----0---0-|---0-------|---2-------|-----0---0-|-----0---0-|---0-------|
---2-------|-----------|-3---------|---2-------|---2-------|-----------|
-3---------|-----------|-----------|-3---------|-3---------|-----------|
-----------|-3---------|-----------|-----------|-----------|-3---------|


--0---0------0-|
--1---1------1-|
--2---0------0-|
--3---2---0--2-|
-------------3-|
---------------|

Distortion

----------------------------|
----------------------------|
-5-5-5----------------------| X4
-5-5-5--3-3-3--5-5-5--3-3-3-|
-3-3-3--3-3-3--5-5-5--3-3-3-|
--------1-1-1--3-3-3--1-1-1-|

Acoustic

C G F C C G F G
-0----3----1----0----0----3----1----3--|
-1----3----1----1----1----3----1----3--|
-0----0----2----0----0----0----2----4--| X2
-2----0----3----2----2----0----3----5--|
-3----2----3----3----3----2----3----5--|
------3----1--------------3----1----3--|

Distortion

----------------------------|
----------------------------|
-5-5-5----------------------| X4
-5-5-5--3-3-3--5-5-5--3-3-3-|
-3-3-3--3-3-3--5-5-5--3-3-3-|
--------1-1-1--3-3-3--1-1-1-|

------------------------------------------------------------|
------------------------------------------------------------|
----------9-10-10-10-10-5-5-5-5-----------------------------|
-77777777-9-10-10-10-10-5-5-5-5--77777777-2-3-3-3-3-5-5-5-5-|
-77777777-7-8--8--8--8--3-3-3-3--77777777-2-3-3-3-3-5-5-5-5-|
-55555555------------------------55555555-0-1-1-1-1-3-3-3-3-|

---------------------------------------------------------------------|
---------------------------------------------------------------------|
----------9-10-10-10-10-5-5-5-5--------------------------------------|
-77777777-9-10-10-10-10-5-5-5-5-77777777-2-55-X-X-X-55-X-X-X-5X-5X-5-|
-77777777-7-8--8--8--8--3-3-3-3-77777777-2-55-X-X-X-55-X-X-X-5X-5X-5-|
-55555555-----------------------55555555-0-33-X-X-X-33-X-X-X-3X-3X-3-|

Acoustic

C G F C C G F G
-0----3----1----0----0----3----1----3--|
-1----3----1----1----1----3----1----3--|
-0----0----2----0----0----0----2----4--| X3
-2----0----3----2----2----0----3----5--|
-3----2----3----3----3----2----3----5--|
------3----1--------------3----1----3--|

Distortion

----------------------------|
----------------------------|
-5-5-5----------------------| X8
-5-5-5--3-3-3--5-5-5--3-3-3-|
-3-3-3--3-3-3--5-5-5--3-3-3-|
--------1-1-1--3-3-3--1-1-1-|

Outro is acoustic

C G F C C G
-----------|-------3---|-------0---|-----------|-----------|-------3---|
-------1---|-----3---3-|-----1---1-|-------1---|-------1---|-----3---3-|
-----0---0-|---0-------|---2-------|-----0---0-|-----0---0-|---0-------|
---2-------|-----------|-3---------|---2-------|---2-------|-----------|
-3---------|-----------|-----------|-3---------|-3---------|-----------|
-----------|-3---------|-----------|-----------|-----------|-3---------|


--0---0------0-|
--1---1------1-|
--2---0------0-|
--3---2---0--2-|
-------------3-|
---------------|


There you have it.
Добавлено: 28.04.2014
Другие материалы по этой песне:
  • Аккорды и текст

Страница создана 26.03.2014
http://primanota.ru/green-day/minorty-chords.htm
Привет, Гость.
Предлагаем пройти революционный курс по гитаре.
Подарок от PrimaNota.Ru, забирай!