PrimaNota.ru - самый крупный в мире бесплатный архив песенных текстов, аккордов, табулатур и нот


Green Day - Minority Live - таба, видео

Регистрация Запомнить меня
Войти через:  Facebook Google Twitter Vk Yandex Mail.ru

Green Day - Minority Live - таба, видео

Печатать
Просмотров: 298
Уроки эстрадного вокала в Санкт-Петербурге
Minority Live
Bullet In a Bible
Green Day
Standard Tuning (e a d g b e)

Intro:
e|--------------------------------------------------------------|
b|-1-1-1-1-0-1-1-1-1-0-1-1-1-1-1-1-1-1-1-1-1-1-1-1-1-1-1-1-0----|
g|-0-0-0-0-0-0-0-0-0-0-2-2-2-2-0-0-0-0-0-0-0-0-0-0-0-0-0-0-0----|
d|-2-2-2-2-0-0-0-0-0-0-3-3-3-3-0-2-2-2-2-2-2-2-2-2-0-0-0-0-0----|
a|-3-3-3-3---0-0-0-0-------------3-3-3-3-3-3-3-3-3-0-0-0-0------|
e|-----------3-3-3-3-------------------------------3-3-3-3------|

e|--------------------------------------------------------------|
b|-1-----1------------------------------------------------------|
g|-2-0-0-0------------------------------------------------------|
d|-3-2-0-2------------------------------------------------------|
a|-------3------------------------------------------------------|
e|--------------------------------------------------------------|

Chorus:(I wanna be the Minority...)
e|-------------------------------------------------------------|
b|-------------------------------------------------------------|
g|-------------------------------------------------------------|
d|-5-5-5-5-----------------------------------------------------|   x4
a|-3-3-3-3-3-3-3-3-5-5-5-5-3-3-3-3-----------------------------|
e|---------1-1-1-1-3-3-3-3-1-1-1-1-----------------------------|

Verse:(I pledge allegiance to the underworld...)
e|-------------------------------------------------------------|
b|-1-1-0-1-1-1-1-1-1-1-1-1-------------------------------------|
g|-0-0-0-0-0-0-2-2-0-0-0-0-------------------------------------|
d|-2-2-0-0-0-0-3-3-2-0-2-2-0-0---------------------------------|
a|-3-3---0-0-0---------3-3-2-0---------------------------------|
e|-------3-3-3-------------------------------------------------|

e|-------------------------------------------------------------|
b|-1-1-0-1-1-0-1-1---1-1-1-1-----------------------------------|
g|-0-0-0-0-0-0-2-2---2-0-0-0-----------------------------------|
d|-2-2-0-0-0-0-3-3-2-3-0-0-0-----------------------------------|
a|-3-3---0-0-------2---0-0-0-----------------------------------|
e|-------3-3---------0-3-3-3-----------------------------------|

e|-------------------------------------------------------------|
b|-1-1-0-1-1-0-1-1-1-1-1-1-------------------------------------|
g|-0-0-0-0-0-0-2-2-0-0-0-0-------------------------------------|
d|-2-2-0-0-0-0-3-3-2-0-2-2-0-0---------------------------------|
a|-3-3---0-0-----------3-3-2-0---------------------------------|
e|-------3-3---------------------------------------------------|

e|-------------------------------------------------------------|
b|-1-1-0-1-1-0-1-1-1---1---------------------------------------|
g|-0-0-0-0-0-0-2-2-0-2-0---------------------------------------|
d|-2-2-0-0-0-0-3-3-2-2-2---------------------------------------|
a|-3-3---0-0-----------3---------------------------------------|
e|-------3-3---------------------------------------------------|

Chorus:(I wanna be the Minority...)
e|-------------------------------------------------------------|
b|-------------------------------------------------------------|
g|-------------------------------------------------------------|
d|-5-5-5-5-----------------------------------------------------|   x4
a|-3-3-3-3-3-3-3-3-5-5-5-5-3-3-3-3-----------------------------|
e|---------1-1-1-1-3-3-3-3-1-1-1-1-----------------------------|

Bridge:(Stepped out of the line...)
e|-------------------------------------------------------------|
b|-------------------------------------------------------------|
g|-------------------------------------------------------------|
d|---------------9-10-10-10-10-5-5-5-5-------------------------|
a|-7-7-7-7-7-7-7-7--8--8--8--8-3-3-3-3-------------------------|
e|-5-5-5-5-5-5-5-----------------------------------------------|

e|-------------------------------------------------------------|
b|-------------------------------------------------------------|
g|-------------------------------------------------------------|
d|---------------2---------------------------------------------|
a|-7-7-7-7-7-7-7-2-3-3-3-3-5-5-5-5-----------------------------|
e|-5-5-5-5-5-5-5-0-1-1-1-1-3-3-3-3-----------------------------|

e|-------------------------------------------------------------|
b|-------------------------------------------------------------|
g|-------------------------------------------------------------|
d|---------------9-10-10-10-10-5-5-5-5-------------------------|
a|-7-7-7-7-7-7-7-7--8--8--8--8-3-3-3-3-------------------------|
e|-5-5-5-5-5-5-5-----------------------------------------------|


e|-------------------------------------------------------------|
b|-------------------------------------------------------------|
g|-------------------------------------------------------------|
d|-------------------------------------------------------------|
a|-7-7-7-7-7-7-7--3-5-5-x-x-x-5-5-x-x-x-5-5-5-5-5-5-4----------|
e|-5-5-5-5-5-5-5--1-3-3-x-x-x-3-3-x-x-x-3-3-3-3-3-3-2----------|

Verse:(One light, one mind, flashin' in the dark...)
e|-------------------------------------------------------------|
b|-1-1-0-1-1-1-1-1-1-1-1-1-------------------------------------|
g|-0-0-0-0-0-0-2-2-0-0-0-0-------------------------------------|
d|-2-2-0-0-0-0-3-3-2-0-2-2-0-0---------------------------------|
a|-3-3---0-0-0---------3-3-2-0---------------------------------|
e|-------3-3-3-------------------------------------------------|

e|-------------------------------------------------------------|
b|-1-1-0-1-1-0-1-1---1-1-1-1-----------------------------------|
g|-0-0-0-0-0-0-2-2---2-0-0-0-----------------------------------|
d|-2-2-0-0-0-0-3-3-2-3-0-0-0-----------------------------------|
a|-3-3---0-0-------2---0-0-0-----------------------------------|
e|-------3-3---------0-3-3-3-----------------------------------|

e|-------------------------------------------------------------|
b|-1-1-0-1-1-0-1-1-1-1-1-1-------------------------------------|
g|-0-0-0-0-0-0-2-2-0-0-0-0-------------------------------------|
d|-2-2-0-0-0-0-3-3-2-0-2-2-0-0---------------------------------|
a|-3-3---0-0-----------3-3-2-0---------------------------------|
e|-------3-3---------------------------------------------------|

e|-------------------------------------------------------------|
b|-1-1-0-1-1-0-1-1-1---1---------------------------------------|
g|-0-0-0-0-0-0-2-2-0-2-0---------------------------------------|
d|-2-2-0-0-0-0-3-3-2-2-2---------------------------------------|
a|-3-3---0-0-----------3---------------------------------------|
e|-------3-3---------------------------------------------------|

Chorus:(I wanna be the Minority...)
e|-------------------------------------------------------------|
b|-------------------------------------------------------------|
g|-------------------------------------------------------------|
d|-5-5-5-5-----------------------------------------------------|   x4
a|-3-3-3-3-3-3-3-3-5-5-5-5-3-3-3-3-----------------------------|
e|---------1-1-1-1-3-3-3-3-1-1-1-1-----------------------------|

Bridge:
e|-------------------------------------------------------------|
b|-------------------------------------------------------------|
g|-------------------------------------------------------------|
d|---------------9-10-10-10-10-5-5-5-5-------------------------|
a|-7-7-7-7-7-7-7-7--8--8--8--8-3-3-3-3-------------------------|
e|-5-5-5-5-5-5-5-----------------------------------------------|

e|-------------------------------------------------------------|
b|-------------------------------------------------------------|
g|-------------------------------------------------------------|
d|---------------2---------------------------------------------|
a|-7-7-7-7-7-7-7-2-3-3-3-3-5-5-5-5-----------------------------|
e|-5-5-5-5-5-5-5-0-1-1-1-1-3-3-3-3-----------------------------|

e|-------------------------------------------------------------|
b|-------------------------------------------------------------|
g|-------------------------------------------------------------|
d|---------------9-10-10-10-10-5-5-5-5-------------------------|
a|-7-7-7-7-7-7-7-7--8--8--8--8-3-3-3-3-------------------------|
e|-5-5-5-5-5-5-5-----------------------------------------------|


e|-------------------------------------------------------------|
b|-------------------------------------------------------------|
g|-------------------------------------------------------------|
d|-------------------------------------------------------------|
a|-7-7-7-7-7-7-7--3-5-5-x-x-x-5-5-x-x-x-5-5-5-5-5-5-4----------|
e|-5-5-5-5-5-5-5--1-3-3-x-x-x-3-3-x-x-x-3-3-3-3-3-3-2----------|

Verse: (Billie Joe is talking/introducing band)
e|-------------------------------------------------------------|
b|-1-1-0-1-1-1-1-1-1-1-1-1-------------------------------------|
g|-0-0-0-0-0-0-2-2-0-0-0-0-------------------------------------|
d|-2-2-0-0-0-0-3-3-2-0-2-2-0-0---------------------------------|
a|-3-3---0-0-0---------3-3-2-0---------------------------------|
e|-------3-3-3-------------------------------------------------|
                                                                 x12
e|-------------------------------------------------------------|
b|-1-1-0-1-1-0-1-1---1-1-1-1-----------------------------------|
g|-0-0-0-0-0-0-2-2---2-0-0-0-----------------------------------|
d|-2-2-0-0-0-0-3-3-2-3-0-0-0-----------------------------------|
a|-3-3---0-0-------2---0-0-0-----------------------------------|
e|-------3-3---------0-3-3-3-----------------------------------|

Chorus:(I wanna be the Minority...)
e|-------------------------------------------------------------|
b|-------------------------------------------------------------|
g|-------------------------------------------------------------|
d|-5-5-5-5-----------------------------------------------------|   x8
a|-3-3-3-3-3-3-3-3-5-5-5-5-3-3-3-3-----------------------------|
e|---------1-1-1-1-3-3-3-3-1-1-1-1-----------------------------|

(After the 1st full chorus,which would be x4, Jason White plays it again while Billie 
this):
e|-------------------------------------------------------------|
b|-13----13----13----17-13-------------------------------------|
g|----12----12----12-------------------------------------------|  x4
d|-------------------------------------------------------------|
a|-------------------------------------------------------------|
e|-------------------------------------------------------------|

Outro:
e|--------------------------------------------------------------|
b|-1-1-1-1-0-1-1-1-1-0-1-1-1-1-1-1-1-1-1-1-1-1-1-1-1-1-1-1-0----|
g|-0-0-0-0-0-0-0-0-0-0-2-2-2-2-0-0-0-0-0-0-0-0-0-0-0-0-0-0-0----|
d|-2-2-2-2-0-0-0-0-0-0-3-3-3-3-0-2-2-2-2-2-2-2-2-2-0-0-0-0-0----|
a|-3-3-3-3---0-0-0-0-------------3-3-3-3-3-3-3-3-3-0-0-0-0------|
e|-----------3-3-3-3-------------------------------3-3-3-3------|

e|--------------------------------------------------------------|
b|-1-----1------------------------------------------------------|
g|-2-0-0-0------------------------------------------------------|
d|-3-2-0-2------------------------------------------------------|
a|-------3------------------------------------------------------|
e|--------------------------------------------------------------|
Добавлено: 03.06.2012
Другие материалы по этой песне:

Страница создана 08.04.2012
http://primanota.ru/green-day/minority-live-chords.htm
Привет, Гость.
Предлагаем пройти революционный курс по гитаре.
Подарок от PrimaNota.Ru, забирай!