PrimaNota.ru - самый крупный в мире бесплатный архив песенных текстов, аккордов, табулатур и нот


Green Day - Maria Corrected - таба, видео

Регистрация Запомнить меня
Войти через:  Facebook Google Twitter Vk Yandex Mail.ru

Green Day - Maria Corrected - таба, видео

Печатать
Просмотров: 135
Song:Maria
Artist:Green Day
Album:International Superhits

Tabbed by Jonathan Smith (RUBSY)

I ALREADY TABBED THIS, BUT AFTER WATCHING THEM PLAY THIS AT MANCHESTER IN JULY I SAW HOW THE SOLO AND BRIDGE IS PLAYED, NOW I THINK THAT IT'S 100% CORRECT.

Intro: (Live version just continues with A5 chord, but CD sounds like this)
   D     A5
E|--------------------------------------------|
B|-7-7-7--------------------------------------|
G|-7-7-7--------------------------------------|
D|-7-7-7-7-x-x-x-x-x-x-x-x-x-x-x-x-x-x-x-x----| Try and only hit these two
A|-5-5-5-7-0-0-0-0-0-0-0-0-0-0-0-0-0-0-0-0----| strings
E|-------5------------------------------------|X2

Verse:1 (Play Intro)

She smashed the radio with the board of education.
Turned up the static left the blood state of the nation.

Pre-Chorus
   A5 Ab5 E
E|---------------------------------------------|
B|--------9-9-9-9-9-9-9-9-9-9-9-9-9-9-9-9------|
G|--------9-9-9-9-9-9-9-9-9-9-9-9-9-9-9-9------|
D|-7-7-6--9-9-9-9-9-9-9-9-9-9-9-9-9-9-9-9------|
A|-7-7-6--7-7-7-7-7-7-7-7-7-7-7-7-7-7-7-7------|
E|-5-5-4---------------------------------------| X4
1. Turn up the flame step on the gas, 
Burning the flag at half mast.
She's a rebels forgotten son,
           The expert of the revolution. 

//VERSE 2//   //PRE-CHORUS//

Chorus
   D       A       D       A       D      A        E
E|----------------------------------------------------------------------|
B|-7-7-7-7---------7-7-7-7---------7-7-7-7---------9-9-9-9-x-9-9-9-9----|
G|-7-7-7-7-6-6-6-6-7-7-7-7-6-6-6-6-7-7-7-7-6-6-6-6-9-9-9-9-x-9-9-9-9----|
D|-7-7-7-7-7-7-7-7-7-7-7-7-7-7-7-7-7-7-7-7-7-7-7-7-9-9-9-9-x-9-9-9-9----|
A|-5-5-5-5-7-7-7-7-5-5-5-5-7-7-7-7-5-5-5-5-7-7-7-7-7-7-7-7-x-7-7-7-7----|
E|---------5-5-5-5---------5-5-5-5---------5-5-5-5----------------------|X1
Mari.......a     Mari...a,ah,ah  Mari......a, Where did you go?

Bridge 
   E      Esus       E5          Esus
E|------------------------------------------|
B|-9--x-9-10---x-10-12-12-x-12--10--10-10---|
G|-9--x-9--9---x--9--9--9-x--9---9---9--9---|
D|-9--x-9--9---x--9--9--9-x--9---9---9--9---|
A|------------------------------------------|
E|------------------------------------------|X6 

Guitar Solo:Play Twice 
   D                  A5                           E              
E|-0--0-12-----------5----------5-----------|  |------------------------|
B|-9-10-12--5------5---5------5---5---------|  |--9--10--12--10-9--10---|
G|----------7bfull-----7bfull-----7bfull----|  |-9--9---9---9-----9-----|
D|------------------------------------------|  |------------------------|
A|------------------------------------------|X4|------------------------|
E|------------------------------------------|  |------------------------|X1



   
               








Добавлено: 18.08.2013
Другие материалы по этой песне:
  • Аккорды и текст

Страница создана 18.08.2013
http://primanota.ru/green-day/maria-corrected-chords.htm
Привет, Гость.
Предлагаем пройти революционный курс по гитаре.
Подарок от PrimaNota.Ru, забирай!