PrimaNota.ru - самый крупный в мире бесплатный архив песенных текстов, аккордов, табулатур и нот


Green Day - Let Yourself Go Live - таба, видео

Регистрация Запомнить меня
Войти через:  Facebook Google Twitter Vk Yandex Mail.ru

Green Day - Let Yourself Go Live - таба, видео

Печатать
Просмотров: 192
________________________________LET YOURSELF GO______________________________
_________________________________GREEN DAY___________________________________
Hi, this is a new song by Green Day.It will be released on ¡Uno!.
You can listen to the song here: http://youtu.be/MyPyqtyRAXc

This is the TAB:

INTRO x2

|---------------------------|
|---------------------------|
|------7--------------------|  
|---5--7--7--777777777777---|
|---5--5--7--777777777777---|
|---3-----5--555555555555---|

VERSE

|---------------------------|
|---------------------------|
|------7--------------------|  
|---5--7--7--777777777777---|  X2
|---5--5--7--777777777777---|
|---3-----5--555555555555---|

|------------------------|  |------------------------------------------|
|------------------------|  |------------------------------------------|
|------7-----------------|X2|-----7------------------------------------|
|---5--7--7--777777------|  |--5--7--7---------------------------------|
|---5--5--7--555555------|  |--5--5--7---------------------------------|
|---3-----5--555555------|  |--3-----5---------------------------------|

CHORUS

|--------------------------------------|  |--------------------------|
|--------------------------------------|  |--------------------------|
|--7-7-7-7-7-12-12-12-12-12-9-9-9-9-9--|  |--------------------------|
|--7-7-7-7-7-12-12-12-12-12-9-9-9-9-9--|X4|--5--6--7--XXXXXXXXXXXX---|X2
|--5-5-5-5-5-10-10-10-10-10-7-7-7-7-7--|  |--5--6--7--XXXXXXXXXXXX---|
|--------------------------------------|  |--3--4--5--XXXXXXXXXXXX---|

SOLO (only the first part, sorry ^^')

|--------------------------------------|
|--------------------------------------|
|--7-7-7-7-7--12-12-12-12-12--9--7--6--|
|--7-7-7-7-7--12-12-12-12-12--9--7--6--|
|--5-5-5-5-5--10-10-10-10-10--7--5--4--|
|--------------------------------------|

|--------------------------------------------------|
|--------------------------------------------------|
|--7-7-7-7-7--12-12-12-12-12--14-14-14-14-14-12-12-|
|--7-7-7-7-7--12-12-12-12-12--12-12-12-12-12-12-12-| I DON'T KNOW THE REST
|--5-5-5-5-5--10-10-10-10-10--12-12-12-12-12-12-12-|
|--------------------------------------------------|

BRIDGE
      PM""""""""""
|--------------------|
|--------------------|
|--7--XXXXXXXXXXXX---| X19
|--7--XXXXXXXXXXXX---|
|--5--XXXXXXXXXXXX---|
|--------------------|

OUTRO

|--------------------------------------|
|--------------------------------------|
|--------------------------7-----------|
|--5--6--7--------------5--7--7--------|
|--5--6--7--------------5--5--7--------|
|--3--4--5--------------3-----5--------|


Order
-Intro
-Verse
-Chorus
-Verse
-Chorus
-Solo
-Bridge
-Chorus (no x4, but x9)
-Outro


==============================GREEN DAY ARE BACK!============================
Добавлено: 28.06.2013
Другие материалы по этой песне:
  • Аккорды и текст

Страница создана 28.06.2013
http://primanota.ru/green-day/let-yourself-go-live-chords.htm
Привет, Гость.
Предлагаем пройти революционный курс по гитаре.
Подарок от PrimaNota.Ru, забирай!