PrimaNota.ru - самый крупный в мире бесплатный архив песенных текстов, аккордов, табулатур и нот


Green Day - Holiday Live - бас-таба, видео

Регистрация Запомнить меня
Войти через:  Facebook Google Twitter Vk Yandex Mail.ru

Green Day - Holiday Live - бас-таба, видео

Печатать
Просмотров: 474
Уроки эстрадного вокала в Санкт-Петербурге
-----------------------------------------------------------------------------
                             Holiday (Live) - Green Day
-----------------------------------------------------------------------------

Tabbed by: Country Bass
E-mail: aaron.white8@education.nsw.gov.au

Track: 3
Album: Bullet In A Bible


I've tabbed out this song how Mike Dirnt plays it on the Bullet In A Bible album.
The only difference to the version off American Idiot is the bridge is played 22 times not 12

Listen to the song for timing

Tuning: Standard


Guitar plays through two bars
The Drums then join in playing for two bars

The bass and the second electric guitar come in after four bars 

Intro

G|-xxxxxx------------------------------------------------------------|
D|-xxxxxx------------------------------------------------------------|
A|-xxxxxx-9--9-9-4--4-4--------6-6-6-6-9--9-9-4--4-4--------6-6-6-6--| 
E|-xxxxxx---------------4--4-4-----------------------4--4-4----------|

Verse

G|-------------------------------------------------------------|
D|-------------------------------------------------------------|
A|--9--9-9-4--4-4--------6-6-6-6-9--9-9-4--4-4--------6-6-6-6--| 
E|----------------4--4-4-----------------------4--4-4----------|

G|------------------------------------------------------------|
D|------------------------------------------------------------|
A|--9--9-9-4--4-4---------6--6-6-3-3-3-3-3-3-3-3-3-3-3-3-3-3--|
E|----------------4--4-4--------------------------------------|

Chorus

G|-------------------------------------------------------------------|
D|-------------------------------------------------------------------|
A|---------4-4-4-4---------6-6-6-6---------4-4-4-4---------6-6-6-6-6-| 
E|-1-1-1-1---------4-4-4-4---------1-1-1-1---------4-4-4-4-----------|


Instrumental Break/Bridge

G|------------------------|
D|------------------------|
A|------------------------| x4
E|-1--1-3-4--4-4-6-7-8-9--|

G|-------------------------------------------------------------------|
D|-------------------------------------------------------------------|
A|---------4-4-4-4---------6-6-6-6---------4-4-4-4---------6-6-6-6-6-| 
E|-1-1-1-1---------4-4-4-4---------1-1-1-1---------4-4-4-4-----------|

G|--------------------------------------------------------------------------|
D|--------------------------------------------------------------------------|
A|---------4-4-4-4-----------------------------66-6-6-66-6-6-66-6-6-66-6-6--|
E|-1-1-1-1---------44-4-4-44-4-4-44-4-4-44-4-4------------------------------|

G|------------------------|
D|------------------------|
A|------------------------| x22
E|-1--1-3-4--4-4-6-7-8-9--|

G|-------------------|
D|-------------------|
A|---3-(x16)-15-(x6)-|
E|-------------------|

Chorus 3

G|-------------------------------------------------------------------|
D|-------------------------------------------------------------------|
A|---------4-4-4-4---------6-6-6-6---------4-4-4-4---------6-6-6-6-6-| x2
E|-1-1-1-1---------4-4-4-4---------1-1-1-1---------4-4-4-4-----------|

G|--------------------------------------------------------------------------|
D|--------------------------------------------------------------------------|
A|---------4-4-4-4-----------------------------66-6-6-66-6-6-66-6-6-66-6-6--|
E|-1-1-1-1---------44-4-4-44-4-4-44-4-4-44-4-4------------------------------|

Outro

G|-------------------------------------------------------------|
D|-------------------------------------------------------------|
A|--9--9-9-4--4-4--------6-6-6-6-9--9-9-4--4-4--------6-6-6-6--| 
E|----------------4--4-4-----------------------4--4-4----------|

G|--------------------------------------------------------|
D|--------------------------------------------------------|
A|--9--9-9-4--4-4---------6--6-6-9--9-9-4--4-4-9-4--------| 
E|----------------4--4-4---------------------------4-1----|


Playing Order

Intro
Verse x2
Chorus
Verse x2
Chorus
Instrumental Break/Bridge
Chorus 3
Outro


Have Fun


| /  slide up
| \  slide down
| h  hammer-on
| p  pull-off
| ~  vibrato
| +  harmonic
| x  Mute note
=============================================================================
Добавлено: 10.10.2013
Другие материалы по этой песне:

Страница создана 17.03.2012
http://primanota.ru/green-day/holiday-live-chords.htm
Привет, Гость.
Предлагаем пройти революционный курс по гитаре.
Подарок от PrimaNota.Ru, забирай!