PrimaNota.ru - самый крупный в мире бесплатный архив песенных текстов, аккордов, табулатур и нот


Green Day - Give Me Novocaine - бас-таба, видео

Регистрация Запомнить меня
Войти через:  Facebook Google Twitter Vk Yandex Mail.ru

Green Day - Give Me Novocaine - бас-таба, видео

Печатать
Просмотров: 1290
-----------------------------------------------------------------------------
                     Give Me Novocaine - Green Day
-----------------------------------------------------------------------------

Tabbed by: Country Bass
E-mail: aaron.white8@education.nsw.gov.au

Tuning: Standard

Listen for timing, I may have gotten the number of times played a little wrong in 
the bridge but its easy to figure out timing

No bass until the first chorus


Chorus

G|----------------------------------------------------|
D|----------------------------------------------------|
A|---5-5-5-5-5----------------------------------------| x2
E|--------------------5-5-5-5-5-5-5-5-5-5-5-5-5-5-5-5-|

G|--------------------------------------------------------------------|
D|--------------------------------------------------------------------|
A|---5-5-5-5-5-5-5-5-5-5-5-5-5-5-5-5----------------------------------|
E|-----------------------------------2-2-2-2-2-2-2-2-2-2-2-2-2-2-2-2--|

G|---------------------------------------------------------|
D|---------------------------------------------------------|
A|--2-2-2-2-2-2-2-2-2-2-2-2-2-2-2-2---7-7-7-7-7-7-7-7-7----|
E|---------------------------------------------------------|

Verse


G|----------------------------------------------------------------|
D|----------------------------------------------------------------|
A|--0-000-000-00-0-----------------2-222-222-22-2-----------------| x3
E|-----------------2-222-222-22-2-----------------0-000-000-00-0--|

Bridge

G|---------------------------------------|------------------------------------------------|
D|---------------------------------------|------------------------------------------------|x3
A|--xxxxxxx------------------------------|------------------------------------------------|
E|--xxxxxxx--5-5-5-5-5-5-5-5-5-5-5-5-5-5-|-2-2-2-2-2-2-2-2-2-2--5-5-5-5-5-5-5-5-5-5-5-5---|

G|---------------------------------------------------------------------------|
D|---------------------------------------------------------------------------|
A|---2-2-2-2-2-2-2-2--7-7-7-7-7--7--7--7--7--7--7--7--7-7-7-7----------------|
E|---------------------------------------------------------------------------|

Outro

G|------------------------------------------------------------------|
D|------------------------------------------------------------------|
A|--0-000-000-00-0-----------------2-222-222-22-2-------------------| 
E|-----------------2-222-222-22-2-----------------0-000-000-00-0-0--|


Playing Order

Intro/Verse 1 (No Bass)
Chorus
Verse
Chorus
Bridge
Chorus
Outro


Have Fun


| /  slide up
| \  slide down
| h  hammer-on
| p  pull-off
| ~  vibrato
| +  harmonic
| x  Mute note
=============================================================================
Добавлено: 16.01.2014
Другие материалы по этой песне:
  • Аккорды и текст

Страница создана 16.01.2014
http://primanota.ru/green-day/give-me-novocaine-chords.htm
Привет, Гость.
Предлагаем пройти революционный курс по гитаре.
Подарок от PrimaNota.Ru, забирай!