PrimaNota.ru - самый крупный в мире бесплатный архив песенных текстов, аккордов, табулатур и нот


Green Day - Foot In Mouth Bowling Bowling Bowling Parking Parking (album) - таба, видео

Регистрация Запомнить меня
Войти через:  Facebook Google Twitter Vk Yandex Mail.ru

Green Day - Foot In Mouth Bowling Bowling Bowling Parking Parking (album) - таба, видео

Печатать
Просмотров: 212
Green Day Foot in mouth live album tab
Full live album tab
Tabbed by Liam 
Email: guitar_rocker_47@hotmail.com
Tuning half a step down unless otherwise stated

If you haven't heard of this album (and why the fuck not!) it's a one of
two live songs album released on the Internet I downloaded it from greenday.net
or greendayauthority.com im not sure it was just a green day fan site anyway
This is just collection of some of their songs played live, I will tab bass
and lyrics also for your convenience. Lastly I am also submitting the second
live songs album named 'Bowling bowling parking' at the same time as this
tab So go check it out if you wanna. If you like this tab please rate this
and leave a comment.

 1. Going to Pasalacqua        (Recorded live in Stockholm, Sweden 1995)
 2. Welcome to Paradise        (Recorded live in St. Petersburg, FL 1994)
 3. Geek Stink Breath          (Recorded live in Stockholm, Sweden 1995)
 4. One of My Lies             (Recorded live in St. Petersburg, FL 1994)
 5. Stuck With me              (Recorded live in Stockholm, Sweden 1995)
 6. Chump                      (Recorded live in St. Petersburg, FL 1994)
 7. Longview                   (Recorded live in St. Petersburg, FL 1994)
 8. 2,000 Light Years Away     (recorded live in St. Petersburg, FL 1994)
 9. When I Come Around         (Recorded live in Tokyo, Japan 1996)
10. Burnout                    (recorded live in St. Petersburg, FL 1994)
11. F.O.D.(Fuck Off and Die)   (Recorded live in Prague, Czech Republic 1996)
12. Armatage Shanks            (recorded live in Prague, Czech Republic 1996)
13. Brain Stew                 (recorded live in Prague, Czech Republic 1996)
14. Jaded                      (recorded live in Prague, Czech Republic 1996)
15. Knowledge                  (recorded live in St. Petersburg, FL 1994)
16. Basket Case                (Recorded live at Harumi Arena in Tokyo, Japan 1996)
17. She                        (Recorded live at Harumi Arena in Tokyo, Japan 1996)
18. Walking Contradiction      (recorded live in Prague, Czech Republic 1996)

---------------------------------------------------------------------------------
Green Day Going to Pasalacqua 
---------------------------------------------------------------------------------

------
Guitar
------

Intro
e|-----------------------------------------------------------------------------|
B|-2-2--2h3p2h3p2h3p2h3p2h3p2h3p2h3p2h3p2h3p2h3p2h3p2h3p2h3p2h3p2h3p2h3p2--2-2-|
G|-2-2---------------------------------------------------------------------2-2-|
D|-2-2---------------------------------------------------------------------2-2-|
A|-0-0---------------------------------------------------------------------0-0-|
E|-----------------------------------------------------------------------------|

Verse
e|------------------------------------------------------------------|
B|------------------------------------------------------------------|
G|----------2-2-2-2-2-----------------------------------------------|
D|-2-2-2-2--2-2-2-2-2--7-7-7-7-7-7-7-7-7-7--2-2-2-2-2-2-2-2-2-2-2-2-|
A|-2-2-2-2--0-0-0-0-0--7-7-7-7-7-7-7-7-7-7--2-2-2-2-2-2-2-2-2-2-2-2-|
E|-0-0-0-0-------------5-5-5-5-5-5-5-5-5-5--0-0-0-0-0-0-0-0-0-0-0-0-|

Chorus part 1
e|---------------------------------------------------------------------------|
B|-----------------------------------------3-3-3-3-3-3-3-3-------------------|
G|-7-7-7-7-7-------------------------------2-2-2-2-2-2-2-2-------------------|
D|-7-7-7-7-7--7-7-7-7-2-2-2-2-2-2-2-2-2-2--0-0-0-0-0-0-0-0--7-7-7-7-7-7-7-7--|
A|-5-5-5-5-5--7-7-7-7-2-2-2-2-2-2-2-2-2-2-------------------7-7-7-7-7-7-7-7--|
E|------------5-5-5-5-0-0-0-0-0-0-0-0-0-0-------------------5-5-5-5-5-5-5-5--|

Chorus part 2
e|----------------------------------------------------------------|
B|-----------------------------------------3-3-3------------------|
G|-7-7-7-7-7-------------------------------2-2-2------------------|
D|-7-7-7-7-7--7-7-7-7-2-2-2-2-2-2-2-2-2-2--0-0-0--7-7-7-7-7-7-7-7-|
A|-5-5-5-5-5--7-7-7-7-2-2-2-2-2-2-2-2-2-2---------7-7-7-7-7-7-7-7-|
E|------------5-5-5-5-0-0-0-0-0-0-0-0-0-0---------5-5-5-5-5-5-5-5-|
PM 					  ***************

Verse 2
e|---------------------------------------------------------------------------|
B|----------------------------------------------------------3-3-3-3-3-3-3-3--|
G|----------------------------------------------------------2-2-2-2-2-2-2-2--|
D|-7-7-7-7-7-7-7-7-7--2-2-2-2-2-2-2-2-2-2--4-4-4-4-4-4-4-4--0-0-0-0-0-0-0-0--|
A|-7-7-7-7-7-7-7-7-7--2-2-2-2-2-2-2-2-2-2--4-4-4-4-4-4-4-4-------------------|
E|-5-5-5-5-5-5-5-5-5--0-0-0-0-0-0-0-0-0-0--2-2-2-2-2-2-2-2-------------------|

Fill 1
e|---------------------------------------------------------------------------|
B|---------------------------------------------------------------------------|
G|---------------------------------------------------------------------------|
D|-7-7-7----7-7-7-7-7-7-7-7-7-7-7-7-7-7-7-7-7-7-7-7-7-7-7-7-7-7-7-7-7-7-7-7--|
A|-7-7-7----7-7-7-7-7-7-7-7-7-7-7-7-7-7-7-7-7-7-7-7-7-7-7-7-7-7-7-7-7-7-7-7--|
E|-5-5-5----5-5-5-5-5-5-5-5-5-5-5-5-5-5-5-5-5-5-5-5-5-5-5-5-5-5-5-5-5-5-5-5--|
PM          ***************************************************************

Fill 2
e|----------------------------------------------------|
B|----------------------------------------------------|
G|----------------------------------------------------|
D|-2-2-2-2-2-2-2-2-2-2-2-2-2-2-2-2-2-2-2-2-2-2-2-2-2--|
A|-2-2-2-2-2-2-2-2-2-2-2-2-2-2-2-2-2-2-2-2-2-2-2-2-2--|
E|-0-0-0-0-0-0-0-0-0-0-0-0-0-0-0-0-0-0-0-0-0-0-0-0-0--|
PM *************************************************

Solo
e|------2~-------2~-------2~--------2~-------2~------2~-|
B|-2~---3~--2~---3~--2~---3~---2~---3~---2~--3~--2~--3~-|
G|-2~---2~--2~---2~--2~---2~---2~---2~---2~--2~--2~--2~-|
D|-2~---0~--2~---0~--2~---0~---2~---0~---2~--0~--2~--0~-|
A|-0~-------0~-------0~--------0~--------0~------0~-----|
E|------------------------------------------------------|

Outro
e|--------------------------------------------------------------------------------|
B|--------------------------------------------------------------------------------|
G|--------------------------------------------------------7~-7~-7~-7~-7~-7~-7~~~-7|
D|-7-7-7-7-7-7-7-7-7-2-2-2-2-2-2-2-2-2-2-4-4-4-4-4-4-4-4--7~-7~-7~-7~-7~-7~-7~~~-7|
A|-7-7-7-7-7-7-7-7-7-2-2-2-2-2-2-2-2-2-2-4-4-4-4-4-4-4-4--5~-5~-5~-5~-5~-5~-5~~~-5|
E|-5-5-5-5-5-5-5-5-5-0-0-0-0-0-0-0-0-0-0-2-2-2-2-2-2-2-2--------------------------|

e|--------------------------------------------------------------------|
B|--------------------------------------------------------------------|
G|--------------------------------------------------------------------|
D|-x-x-x-x-x-x-x-x--x-x-x-x-x-x-x-x--x-x-x-x-x-x-x--x-x-x-x-x-x-x-x-x-|
A|-x-x-x-x-x-x-x-x--x-x-x-x-x-x-x-x--x-x-x-x-x-x-x--x-x-x-x-x-x-x-x-x-|
E|-x-x-x-x-x-x-x-x--x-x-x-x-x-x-x-x--x-x-x-x-x-x-x--x-x-x-x-x-x-x-x-x-|

e|-----------------------------------------------------------------------|
B|-----------------------------------------------------------------------|
G|-----------------------------------------------------------------------|
D|-x-x-x-x-x-x-x-x--x-x-x-x-x-x-x-x--x-x-x-x-x-x-x--x-x-x-x-x-x-x-x-x--7-|
A|-x-x-x-x-x-x-x-x--x-x-x-x-x-x-x-x--x-x-x-x-x-x-x--x-x-x-x-x-x-x-x-x--7-|
E|-x-x-x-x-x-x-x-x--x-x-x-x-x-x-x-x--x-x-x-x-x-x-x--x-x-x-x-x-x-x-x-x--5-|

Order

Verse x2
Chorus part 1
Chorus part 2
Verse 2 x2
Fill 1 x2
Verse (just play half of it)
Fill 2
Verse (play the other half of it)
Chorus part 1
Chorus part 2
Verse 2 x2
Solo
Chorus part 1
Chorus part 2
Verse 2 x2
Outro

----
Bass
----

Verse
G|------------------------------------------------------------------|
D|------------------------------------------------------------------|
A|----------0-0-0-0-0-----------------------------------------------|
E|-0-0-0-0-------------5-5-5-5-5-5-5-5-5-5--0-0-0-0-0-0-0-0-0-0-0-0-|

Chorus part 1
G|---------------------------------------------------------------------------|
D|-----------------------------------------0-0-0-0-0-0-0-0-------------------|
A|-5-5-5-5-5-----------------------------------------------------------------|
E|------------5-5-5-5-0-0-0-0-0-0-0-0-0-0-------------------5-5-5-5-5-5-5-5--|

Chorus part 2
G|----------------------------------------------------------------|
D|-----------------------------------------0-0-0------------------|
A|-5-5-5-5-5------------------------------------------------------|
E|------------5-5-5-5-0-0-0-0-0-0-0-0-0-0---------5-5-5-5-5-5-5-5-|
PM 					  ***************

Verse 2
G|---------------------------------------------------------------------------|
D|----------------------------------------------------------0-0-0-0-0-0-0-0--|
A|---------------------------------------------------------------------------|
E|-5-5-5-5-5-5-5-5-5--0-0-0-0-0-0-0-0-0-0--2-2-2-2-2-2-2-2-------------------|

Fill 1
G|---------------------------------------------------------------------------|
D|---------------------------------------------------------------------------|
A|---------------------------------------------------------------------------|
E|-5-5-5----5-5-5-5-5-5-5-5-5-5-5-5-5-5-5-5-5-5-5-5-5-5-5-5-5-5-5-5-5-5-5-5--|
PM          ***************************************************************

Fill 2
G|----------------------------------------------------|
D|----------------------------------------------------|
A|----------------------------------------------------|
E|-0-0-0-0-0-0-0-0-0-0-0-0-0-0-0-0-0-0-0-0-0-0-0-0-0--|
PM *************************************************

Solo (play during the guitar 'solo'
G|--------------------------22-4-2--|--------------------------22-4-2--|
D|------------------0-0-4-4---------|------------------0-0-4-4---------|
A|-0-0-4-4-5-5-7-7------------------|-0-0-4-4-5-5-7-7------------------|
E|----------------------------------|----------------------------------|

G|-------------------------2-2-4-2-2-2-----------------------------|
D|-----------------0-0-4-4-------------5-5-4-4-2-2-----------------|
A|-0-0-4-4-5-5-7-7---------------------------------5-5-4-4-2-2-0-0-|
E|-----------------------------------------------------------------|

Outro
G|--------------------------------------------------------------------------------|
D|--------------------------------------------------------------------------------|
A|--------------------------------------------------------5~-5~-5~-5~-5~-5~-5~~~-5|
E|-5-5-5-5-5-5-5-5-5-0-0-0-0-0-0-0-0-0-0-2-2-2-2-2-2-2-2--------------------------|

G|--------------------------------------------------------------------|
D|--------------------------------------------------------------------|
A|--------------------------------------------------------------------|
E|-x-x-x-x-x-x-x-x--x-x-x-x-x-x-x-x--x-x-x-x-x-x-x--x-x-x-x-x-x-x-x-x-|

G|-----------------------------------------------------------------------|
D|-----------------------------------------------------------------------|
A|-----------------------------------------------------------------------|
E|-x-x-x-x-x-x-x-x--x-x-x-x-x-x-x-x--x-x-x-x-x-x-x--x-x-x-x-x-x-x-x-x--5-|

Order

Verse x2
Chorus part 1
Chorus part 2
Verse 2 x2
Fill 1 x2
Verse (just play half of it)
Fill 2
Verse (play the other half of it)
Chorus part 1
Chorus part 2
Verse 2 x2
Solo
Chorus part 1
Chorus part 2
Verse 2 x2


---------------------------------------------------------------------------------
Green Day welcome to paradise 
---------------------------------------------------------------------------------
Tuning standard

------
Guitar
------

Intro
e|---------------------------|---------------------------|
B|---------------------------|---------------------------|
G|-9-x-9-9-x-x-7-7-7---------|-9-x-9-9-x-x-7-7-7---------|
D|-9-x-9-9-x-x-7-7-7-7-7-7-7-|-9-x-9-9-x-x-7-7-7-7-7-7-7-|
A|-7-x-7-7-x-x-5-5-5-7-7-7-7-|-7-x-7-7-x-x-5-5-5-7-7-7-7-|
E|-------------------5-5-5-5-|-------------------5-5-5-5-|

Verse
e|---------------------------------------|---------------------------|
B|---------------------------------------|---------------------------|
G|-9-9-9-9--7-7-7-7--9-x-9-9-9--9--9-9--9|-9-9-9-9--7-7-7-7----------|
D|-9-9-9-9--7-7-7-7--9-x-9-9-9--9--9-9--9|-9-9-9-9--7-7-7-7--5-5-5-5-|
A|-7-7-7-7--5-5-5-5--7-x-7-7-7--7--7-7--7|-7-7-7-7--5-5-5-5--5-5-5-5-|
E|---------------------------------------|-------------------3-3-3-3-|

e|-------------|
B|-------------|
G|-------------|
D|-9-9-9-9-9-9-|
A|-9-9-9-9-9-9-|
E|-7-7-7-7-7-7-|

Pre Chorus
e|----------------------------------|
B|----------------------------------|
G|----------------------------------|
D|-5-5-5-5--9-9-9-9-9-9-9-9-9-9-9-9-|
A|-5-5-5-5--9-9-9-9-9-9-9-9-9-9-9-9-|
E|-3-3-3-3--7-7-7-7-7-7-7-7-7-7-7-7-|

Chorus
e|--------------------------------------|---------------------------------|
B|--------------------------------------|---------------------------------|
G|---------------------------5-5-5-5-5-5|------------------4-4-4-4-4-4-4-4|
D|-2-2-2-2-5-5-5-5-5-7-7-7-7-5-5-5-5-5-5|2-2-2-2-5-5-5-5-5-4-4-4-4-4-4-4-4|
A|-2-2-2-2-5-5-5-5-5-7-7-7-7-3-3-3-3-3-3|2-2-2-2-5-5-5-5-5-2-2-2-2-2-2-2-2|
E|-0-0-0-0-3-3-3-3-3-5-5-5-5------------|0-0-0-0-3-3-3-3-3----------------|

e|--------------------------------------|------------------|
B|--------------------------------------|------------------|
G|---------------------------5-5-5-5-5-5|------------4-----|
D|-2-2-2-2-5-5-5-5-5-7-7-7-7-5-5-5-5-5-5|-2-2-2-2-2--4-----|
A|-2-2-2-2-5-5-5-5-5-7-7-7-7-3-3-3-3-3-3|-2-2-2-2-2--2-----|
E|-0-0-0-0-3-3-3-3-3-5-5-5-5------------|-0-0-0-0-0--------|

Interlude 
Bass
G|---------|----------|---------|---------|
D|-----7h9-|-------9--|-----8---|-----7---|
A|-7-7-----|-10-10--10|-9-9---9-|-8-8---8-| x16
E|---------|----------|---------|---------|

Guitar 1 (start on the 5th repeat of the bass riff and you should end on the 
e|-----------------------------------------| 8th repeat
B|-----------------------------------------|
G|--2b~----------------------7b---5-4-3-2--|
D|------2b~--3-2-0-2-3-2-------------------|
A|-----------------------------------------|
E|-----------------------------------------|

Guitar 1 (play straight after above riff)
e|------------------------------------------------|
B|------------------------------------------------|
G|-9-9-9-9--12-12-12-12--11-11-11-11--10-10-10-10-|
D|-9-9-9-9--12-12-12-12--11-11-11-11--10-10-10-10-| x8
A|-7-7-7-7--10-10-10-10---9--9--9--9---8--8--8--8-|
E|------------------------------------------------|
PM ***   ********    *********    *********    ***

Guitar 2 (start on the 4th repeat of guitar 1 riff above)
e|------------------------------------------------|
B|------------------------------------------------|
G|-9-9-9-9--12-12-12-12--11-11-11-11--10-10-10-10-| 
D|-9-9-9-9--12-12-12-12--11-11-11-11--10-10-10-10-| x4
A|-7-7-7-7--10-10-10-10---9--9--9--9---8--8--8--8-|
E|------------------------------------------------|
PM **********************************************

Guitar 1 and 2 (play straight after above riff)
e|------------------------------------------------|
B|------------------------------------------------|
G|-9-9-9-9--12-12-12-12--11-11-11-11--10-10-10-10-|
D|-9-9-9-9--12-12-12-12--11-11-11-11--10-10-10-10-| x4
A|-7-7-7-7--10-10-10-10---9--9--9--9---8--8--8--8-|
E|------------------------------------------------|

Outro
e|---------------------------|-------------------------------|
B|---------------------------|-------------------------------|
G|-9-x-9-9-x-x-7-7-7---------|-9-x-9-9-x-x-7-7-7----------9#-|
D|-9-x-9-9-x-x-7-7-7-7-7-7-7-|-9-x-9-9-x-x-7-7-7-7-7-7-7--9#-|
A|-7-x-7-7-x-x-5-5-5-7-7-7-7-|-7-x-7-7-x-x-5-5-5-7-7-7-7--7#-|
E|-------------------5-5-5-5-|-------------------5-5-5-5-----|

Order

Intro (play once with one guitar, play again with whole band)
Verse x2
Pre Chorus
Chorus
Intro
Verse x2
Pre Chorus
Chorus
Intro x2
Interlude
Verse x2
Pre Chorus
Chorus
Outro

----
Bass
----

Intro
G|------------------------------|------------------------------|
D|------------------------------|------------------------------|
A|-7-x-x-7-7-7-7--5-5-5---------|-7-x-x-7-7-7-7--5-5-5---------|
E|----------------------5-5-5-5-|----------------------5-5-5-5-|

Verse
G|-------------------------------------------|----------------------------|
D|-------------------------------------------|--------4h5---------4h5p4---|
A|-7-7-7-7--5-5-5-5-5-5--7-x-x-7-x-7-x-7-7-7-|-7-7-7------6-5-5-5-------5-|
E|-------------------------------------------|----------------------------|

G|-------------------------------------|
D|-------------------------------------|
A|-----------2-2-2-2-2-2---------------|
E|-3-3-3-3-x---------------------------|

Pre Chorus
G|-------------------------------------|
D|-------------------------------------|
A|-----------2-2-2-2-2-2-2-2-2-2-2-2---|
E|-3-3-3-3-x---------------------------|

Chorus
G|---------------------------------------|---------------------------------|
D|---------------------------------------|---------------------------------|
A|----------------------------3-3-3-3-3-3|------------------2-2-2-2-2-2-2-2|
E|0-0-0-0--3-3-3-3-3--5-5-5-5------------|0-0-0-0-3-3-3-3-3----------------|

G|---------------------------------------|---------------|
D|---------------------------------------|---------------|
A|----------------------------3-3-3-3-3-3|------------2--|
E|0-0-0-0--3-3-3-3-3--5-5-5-5------------|-0-0-0-0-0-----|

Interlude
G|---------|----------|---------|---------|
D|-----7h9-|-------9--|-----8---|-----7---|
A|-7-7-----|-10-10--10|-9-9---9-|-8-8---8-| x16
E|---------|----------|---------|---------|

G|------------------------------------------------|
D|-9-9-9-9--12-12-12-12--11-11-11-11--10-10-10-10-|
A|-7-7-7-7--10-10-10-10---9--9--9--9---8--8--8--8-| x4
E|------------------------------------------------|

Outro
G|------------------------------|----------------------------------|
D|------------------------------|----------------------------------|
A|-7-x-7-7--7-7--5-5-x----------|-7-x-7-7--7-7--5-5-x-----------7#-|
E|----------------------5-5-5-5-|----------------------5-5-5-5-----|


Order

Intro x1 come in after lead guitar has played it once)
Verse x2
Pre Chorus
Chorus
Intro
Verse x2
Pre Chorus
Chorus
Intro
Interlude
Verse x2
Pre Chorus
Chorus
Outro



---------------------------------------------------------------------------------
Green Day Geek stink breath
---------------------------------------------------------------------------------

Intro
e|---------------------|  |-------| |------------------|  |---------|
B|---------------5-5---|  |-------| |------------------|  |---------|
G|---------------5-5---|  |-------| |------------------|  |---------|
D|-5-5--x-3-3-3--5-5---|x4|-5---5-| |-----3--------5---|x3|-3-3-3/5-|
A|-5-5--x-3-3-3--3-3---|  |-5---5-| |-3-3-3-x--5-5-5-x-|  |-3-3-3/5-|
E|-3-3--x-1-1-1--------|  |-3-3-3-| |-1-1-1-x--3-3-3-x-|  |-1-1-1/3-|
PM                            *       ***   *  ***   *

Verse
e|------------------|  |-------------------|
B|------------------|  |-------------------|
G|------------------|  |-------------------|
D|-----3--------5---|x7|-3-3-3-3-3-3-3-3/5-|
A|-3-3-3-x--5-5-5-x-|  |-3-3-3-3-3-3-3-3/5-|
E|-1-1-1-x--3-3-3-x-|  |-1-1-1-1-1-1-1-1/3-|
PM ***   *  ***   *   

Chorus
e|----------------|   |---------------|     |-----------------|
B|----------------|   |---------------|     |-----------------|
G|-3-3------------|   |---------------|     |-----------------|
D|-3-3-2-3--3-3-3-|x4 |-5-5---3-3-3/5-| x3  |-5-5-5-5-5-5-5-5-|
A|-1-1-2-3--3-3-3-|   |-5-5---3-3-3/5-|     |-5-5-5-5-5-5-5-5-|
E|-----0-1--1-1-1-|   |-3-3-0-1-1-1/3-|     |-3-3-3-3-3-3-3-3-|

Bridge
E|------------------------|------------------------|
B|---------------5-5------|---------------5-5------|
G|----------x-x--5-5------|----------x-x--5-5------|
D|-5-5-x-x--3-3--5-5------|-5-5-x-x--3-3--5-5------|
A|-5-5-x-x--3-3--3-3------|-5-5-x-x--3-3--3-3------|
E|-3-3-x-x--1-1------0----|-3-3-x-x--1-1------0----|

Pre Outro
e|-----------------|
B|-----------------|
G|-----------------|
D|-5-5-5-5-5-5-5-5-|
A|-5-5-5-5-5-5-5-5-|
E|-3-3-3-3-3-3-3-3-|

Outro
E|---------------------|---------------------|
B|---------------5-5---|---------------5-5---|
G|---------------5-5---|---------------5-5---|
D|-5-5--x-x-3-3--5-5---|-5-5--x-x-3-3--5-5---|
A|-5-5--x-x-3-3--3-3---|-5-5--x-x-3-3--3-3---|
E|-3-3--x-x-1-1--------|-3-3--x-x-1-1------0-|


Order

Intro
Verse
Chorus
Verse 
Chorus
Bridge x8
Chorus
Bridge x2
Pre Outro
Outro
And end on 

e|------|
B|------|
G|------|
D|-5-5--|
A|-5-5--|
E|-3-3--|

----
Bass
----

Intro
G|---------------------|  |-------| |------------------|  |---------|
D|---------------------|x4|-------| |------------------|x3|---------|
A|---------------3-3---|  |-------| |------------------|  |---------|
E|-3-3--x-x-1-1--------|  |-3-3-3-| |-1-1-1-x--3-3-3-x-|  |-1-1-1/3-|
PM                            *       ***   *  ***   *

Verse
G|------------------|  |-------------------|
D|------------------|x7|-------------------|
A|------------------|  |-------------------|
E|-1-1-1-x--3-3-3-x-|  |-1-1-1-1-1-1-1-1/3-|
PM ***   *  ***   *   

Chorus
G|----------------|   |---------------|     |-----------------|
D|----------------|x4 |---------------| x3  |-----------------|
A|-1-1------------|   |---------------|     |-----------------|
E|-----0-1--1-1-1-|   |-3-3-0-1-1-1/3-|     |-3-3-3-3-3-3-3-3-|

Bridge
G|------------------------|------------------------|
D|------------------------|------------------------|
A|---------------3-3------|---------------3-3------|
E|-3-3-x-x--1-1------0----|-3-3-x-x--1-1------0----|

Pre Outro
G|-----------------|
D|-----------------|
A|-----------------|
E|-3-3-3-3-3-3-3-3-|

Outro
G|---------------------|----------------------|
D|---------------------|----------------------|
A|---------------3-3---|---------------3-3----|
E|-3-3-x-x--1-1--------|-3-3-x-x--1-1------0--|


Order

Intro
Verse
Chorus
Verse 
Chorus
Bridge x8
Chorus
Bridge x2
Pre Outro
Outro
And end on 

G|------|
D|------|
A|------|
E|-3-3--|


---------------------------------------------------------------------------------
Green Day One of my lies
---------------------------------------------------------------------------------

------
Guitar
------

Intro
e|----------------------------------------------------------|-----------------|
B|----------------------------------------------------------|-----------------|
G|-x--7-7-7-7-7---------------------------------------------|--7-7-7-7-7------|
D|-x--7-7-7-7-7--7-7-7-7-7-7-7--5-x-x--5-5-5--x-x--7-7-7-7--|--7-7-7-7-7--7-7-|
A|-x--5-5-5-5-5--7-7-7-7-7-7-7--5-x-x--5-5-5--x-x--7-7-7-7--|--5-5-5-5-5--7-7-|
E|---------------5-5-5-5-5-5-5--3-x-x--3-3-3--x-x--5-5-5-5--|-------------5-5-|

e|-----------------------------------|
B|-----------------------------------|
G|-----------------------------------|
D|-7-7-7-7--5-x-x--5-5-5--x-x--7-7-7-|
A|-7-7-7-7--5-x-x--5-5-5--x-x--7-7-7-|
E|-5-5-5-5--3-x-x--3-3-3--x-x--5-5-5-|

Verse 
e|---------------------------------------------------------------------------|
B|---------------------------------------------------------------------------|
G|-7-7-7-7------------------------------------------7-7-7-7------------------|
D|-7-7-7-7--7-7-7-7-7-9--9-9-9--4-4-4-4-4--5-5-5-5--7-7-7-7--7-7-7-7-7-7-7-7-|
A|-5-5-5-5--7-7-7-7-7-9--9-9-9--4-4-4-4-4--5-5-5-5--5-5-5-5--7-7-7-7-7-7-7-7-|
E|----------5-5-5-5-5-7--7-7-7--2-2-2-2-2--3-3-3-3-----------5-5-5-5-5-5-5-5-|

e|---------------------------------------------------------------------------|
B|---------------------------------------------------------------------------|
G|-7-7-7-7------------------------------------------7-7-7-7------------------|
D|-7-7-7-7--7-7-7-7-7--9-9-9-9--4-4-4-4-4--5-5-5-5--7-7-7-7--7-7-7-7-7-7-7-7-|
A|-5-5-5-5--7-7-7-7-7--9-9-9-9--4-4-4-4-4--5-5-5-5--5-5-5-5--7-7-7-7-7-7-7-7-|
E|----------5-5-5-5-5--7-7-7-7--2-2-2-2-2--3-3-3-3-----------5-5-5-5-5-5-5-5-|

Pre Chorus
e|---------------------------------------------------------------------------|
B|---------------------------------------------------------------------------|
G|---------------------------------------------------------------------------|
D|-5-5-5-5-5--7-7-7-7--5-5-5-5-5--7-7-7-7-7-7---5-5-5-5-5--7-7-7-7--5-5-5-5--|
A|-5-5-5-5-5--7-7-7-7--5-5-5-5-5--7-7-7-7-7-7---5-5-5-5-5--7-7-7-7--5-5-5-5--|
E|-3-3-3-3-3--5-5-5-5--3-3-3-3-3--5-5-5-5-5-5---3-3-3-3-3--5-5-5-5--3-3-3-3--|

e|----------------|
B|----------------|
G|----------------|
D|-5--7-7-7-7-7-7-|
A|-5--7-7-7-7-7-7-|
E|-3--5-5-5-5-5-5-|


Chorus
e|---------------------------------------------------------------------------|
B|---------------------------------------------------------------------------|
G|-7-7-7-7--x---------------7-7-7-7--x----------------7-7-7-7--x-------------|
D|-7-7-7-7--x--7-7-7-7-7-7--7-7-7-7--x--7-7-7-7-7-7---7-7-7-7--x--7-7-7-7-7--|
A|-5-5-5-5--x--7-7-7-7-7-7--5-5-5-5--x--7-7-7-7-7-7---5-5-5-5--x--7-7-7-7-7--|
E|-------------5-5-5-5-5-5--------------5-5-5-5-5-5---------------5-5-5-5-5--|

e|----------------------------|
B|----------------------------|
G|----7-7-7-7--x--------------|
D|-7--7-7-7-7--x--7-7-7-7-7-7-|
A|-7--5-5-5-5--x--7-7-7-7-7-7-|
E|-5--------------5-5-5-5-5-5-|

Interlude
e|------------------------------------------------------------------------|
B|------------------------------------------------------------------------|
G|------------------------------------------------------------------------|
D|-5-5-x-x-8--8-8-8-8---5-5-x-x-8--8-8-8-8--5-5-x-x-8--8-8-8-8--5-5-x-x-8-|
A|-5-5-x-x-8--8-8-8-8---5-5-x-x-8--8-8-8-8--5-5-x-x-8--8-8-8-8--5-5-x-x-8-|
E|-3-3-x-x-6--6-6-6-6---3-3-x-x-6--6-6-6-6--3-3-x-x-6--6-6-6-6--3-3-x-x-6-|

e|---------|
B|---------|
G|---------|
D|-8-8-8-8-|
A|-8-8-8-8-|
E|-6-6-6-6-|

Outro
e|-----------0-----------0---------------------------|
B|----------------------0-0--------------------------|
G|--7-7-7-7------------------------------------------|
D|--7-7-7-7-----7-7-7-7------5--x-x--5-5-5--x-x--7-7-|
A|--5-5-5-5-----7-7-7-7------5--x-x--5-5-5--x-x--7-7-|
E|--------------5-5-5-5------3--x-x--3-3-3--x-x--5-5-|
PM  * * * *     * * * *      *  * *  * * *  * *  * *

2nd Outro
e|------------------------------------------------------------------------|
B|------------------------------------------------------------------------|
G|-7-7-7-7-7-----------------------------------------------7-7-7-7-7------|
D|-7-7-7-7-7--7-7-7-7-7-7-7--5-x-x--5-5-5--x-x--7-7-7-7----7-7-7-7-7--7-7-|
A|-5-5-5-5-5--7-7-7-7-7-7-7--5-x-x--5-5-5--x-x--7-7-7-7----5-5-5-5-5--7-7-|
E|------------5-5-5-5-5-5-5--3-x-x--3-3-3--x-x--5-5-5-5---------------5-5-|
PM * * * *    * * * *   * *  * * *    * *  * *  * * *      * * * *    * * 

e|---------------------------------------|
B|---------------------------------------|
G|---------------------------------------|
D|-7-7-7-7-7--5-x-x--5-5-5--x-x--7-7-7-7-|
A|-7-7-7-7-7--5-x-x--5-5-5--x-x--7-7-7-7-|
E|-5-5-5-5-5--3-x-x--3-3-3--x-x--5-5-5-5-|
PM * *   * *  * * *    * *  * *  * * *

Order

Intro
Verse
Pre Chorus
Chorus
Verse
Pre Chorus
Chorus
Interlude
Chorus x2
2nd Outro
Outro


----
Bass
----

Intro
G|----------------------------------------------------------|-----------------|
D|----------------------------------------------------------|-----------------|
A|-x--5-5-5-5-5---------------------------------------------|--5-5-5-5-5------|
E|---------------5-5-5-5-5-5-5--3-x-x--3-3-3--x-x--5-5-5-5--|-------------5-5-|

G|-----------------------------------|
D|-----------------------------------|
A|-----------------------------------|
E|-5-5-5-5--3-x-x--3-3-3--x-x--5-5-5-|

Verse 
G|---------------------------------------------------------------------------|
D|---------------------------------------------------------------------------|
A|-5-5-5-5------------------------------------------5-5-5-5------------------|
E|----------5-5-5-5-5-7--7-7-7--2-2-2-2-2--3-3-3-3-----------5-5-5-5-5-5-5-5-|

G|---------------------------------------------------------------------------|
D|---------------------------------------------------------------------------|
A|-5-5-5-5------------------------------------------5-5-5-5------------------|
E|----------5-5-5-5-5--7-7-7-7--2-2-2-2-2--3-3-3-3-----------5-5-5-5-5-5-5-5-|

Pre Chorus
G|---------------------------------------------------------------------------|
D|---------------------------------------------------------------------------|
A|---------------------------------------------------------------------------|
E|-3-3-3-3-3--5-5-5-5--3-3-3-3-3--5-5-5-5-5-5---3-3-3-3-3--5-5-5-5--3-3-3-3--|

G|----------------|
D|----------------|
A|----------------|
E|-3--5-5-5-5-5-5-|

Chorus
G|---------------------------------------------------------------------------|
D|---------------------------------------------------------------------------|
A|-5-5-5-5--x---------------5-5-5-5--x----------------5-5-5-5--x-------------|
E|-------------5-5-5-5-5-5--------------5-5-5-5-5-5---------------5-5-5-5-5--|

G|----------------------------|
D|----------------------------|
A|----5-5-5-5--x--------------|
E|-5--------------5-5-5-5-5-5-|

Interlude
G|------------------------------------------------------------------------|
D|------------------------------------------------------------------------|
A|------------------------------------------------------------------------|
E|-3-3-x-x-6--6-6-6-6---3-3-x-x-6--6-6-6-6--3-3-x-x-6--6-6-6-6--3-3-x-x-6-|

G|---------|
D|---------|
A|---------|
E|-6-6-6-6-|

Outro (played by guitar only)


Order

Intro
Verse
Pre Chorus
Chorus
Verse
Pre Chorus
Chorus
Interlude
Chorus x2
2nd Outro
Outro


---------------------------------------------------------------------------------
Green Day Stuck with me
---------------------------------------------------------------------------------

Intro
e|-----------------------------------------------------|
B|-----------------------------------------------------|
G|-9-9-9-9-9-9-9-9-9-----------------------------------|
D|-9-9-9-9-9-9-9-9-9--11--9--7-7-7-7-7-7-7-7-7-7-7-7-7-|
A|-7-7-7-7-7-7-7-7-7--11--9--7-7-7-7-7-7-7-7-7-7-7-7-7-|
E|---------------------9--7--5-5-5-5-5-5-5-5-5-5-5-5-5-|

Verse
e|---------------------------------------------------------------------------|
B|---------------------------------------------------------------------------|
G|-9-9-9-9-9-9-9-9-9-9-------------------------------------------------------|
D|-9-9-9-9-9-9-9-9-9-9--9-9-9-9-9-9-9-9-9--7-7-7-7--9-9-9-9-9-9--7-7-7-7-----|
A|-7-7-7-7-7-7-7-7-7-7--9-9-9-9-9-9-9-9-9--7-7-7-7--9-9-9-9-9-9--7-7-7-7-----|
E|----------------------7-7-7-7-7-7-7-7-7--5-5-5-5--7-7-7-7-7-7--5-5-5-5-----|
PM   * * * * * * * *

e|---------------------------------------------------------------------------|
B|---------------------------------------------------------------------------|
G|--------------9-9-9-9-9-9-9-9-9-9------------------------------------------|
D|-9-9-9-9-9-9--9-9-9-9-9-9-9-9-9-9--9-9-9-9-9-9-9-9-9--7-7-7-7--9-9-9-9-9-9-|
A|-9-9-9-9-9-9--7-7-7-7-7-7-7-7-7-7--9-9-9-9-9-9-9-9-9--7-7-7-7--9-9-9-9-9-9-|
E|-7-7-7-7-7-7-----------------------7-7-7-7-7-7-7-7-7--5-5-5-5--7-7-7-7-7-7-|

e|----------------------|
B|----------------------|
G|----------------------|
D|-7-7-7-7--9-9-9-9-9-9-|
A|-7-7-7-7--9-9-9-9-9-9-|
E|-5-5-5-5--7-7-7-7-7-7-|

Chorus

e|---------------------------------------------------------------------------|
B|---------------------------------------------------------------------------|
G|-6--6-6-6-6-6-6-------9-9-9-9-9-9-9-9-9-9-9-9-9-9----(-x3-)----------------|
D|-6--6-6-6-6-6-6--7-7--9-9-9-9-9-9-9-9-9-9-9-9-9-9-----------7-7-7-7--9-9-9-|
A|-4--4-4-4-4-4-4--7-7--7-7-7-7-7-7-7-7-7-7-7-7-7-7-----------7-7-7-7--9-9-9-|
E|-----------------5-5----------------------------------------5-5-5-5--7-7-7-|

e|--------------------------------|
B|--------------------------------|
G|--------9-9-9-9-9-9-9-9-9-9-9-9-|
D|-9-9-9--9-9-9-9-9-9-9-9-9-9-9-9-|
A|-9-9-9--7-7-7-7-7-7-7-7-7-7-7-7-|
E|-7-7-7--------------------------|

Order

Intro x2
Verse 
Chorus
Verse (don't PM the first chords)
Chorus
Intro x4 
Mini Bass solo (guitar scratches all strings in background)
Chorus


----
Bass
----

Intro
G|---------------------2-1h2---1-2-1-|
D|-2-2-2-2-2-2---------------4-------|
A|-------------4-2-0-0---------------|
E|-----------------------------------|

G|--------------4-2-1-2-2-1-1-----1-1-2-2-1-1------1-1-|
D|-2-2-2-2-2-2----------------4-4-------------4-4------|
A|-----------------------------------------------------|
E|-----------------------------------------------------|

Verse
G|-----------------------------------2--2-----2--2-|
D|-22222222----------------------------------------|
A|----------22222222--0-0---2222--0---0--2222------|
E|-------------------------------------------------|

G|--------------------2-2------2-2-------|--------------------2-2------2-2-------|
D|-22222222------------------------------|-22222222------------------------------|
A|---------22222222-0-0-2222--0-0---2222-|---------22222222-0-0-2222--0-0---2222-|
E|---------------------------------------|---------------------------------------|

Chorus
G|-------1--2------44----99---------9-|-------1--2--------------------|
D|-----------0--22----22----22-99-----|------------0-2222222-11-22-4--|
A|-44444--0-----------------------77--|-44444--0----------------------|
E|------------------------------------|-------------------------------|

G|------1--2---------------------2--2------------------|
D|-----------0-222222-11---------------------222222222-|
A|-4444--0----------------44-2-0--0--0-2222------------|
E|-----------------------------------------------------|

Bridge
G|---------------------2-1h2---1-2-1-|
D|-2-2-2-2-2-2---------------4-------|
A|-------------4-2-0-0---------------|
E|-----------------------------------|

Mini Solo
G|-----------1-2-3-4-2-1--------------------------4-2-1---------|
D|-----1-2-4-------------4-2-1--------1-2-4-2-1---------4-2-1-2-|
A|-2-4-------------------------4-2--4-----------4---------------|
E|--------------------------------------------------------------|

Order

Intro
Verse 
Chorus
Verse
Chorus
Bridge x4 
Mini Bass solo (guitar scratches all strings in background)
Chorus


---------------------------------------------------------------------------------
Green Day Chump 
---------------------------------------------------------------------------------
Tuning: standard

Intro
E|-----------------0-0-0-|-----------------0-0-0-|
B|-----------------0-0-0-|-----------------0-0-0-|
G|-4-4-4-x---------1-1-1-|-4-4-4-x---------1-1-1-|
D|-4-4-4-x--6-6-6--2-2-2-|-4-4-4-x--6-6-6--2-2-2-|
A|-2-2-2-x--6-6-6--2-2-2-|-2-2-2-x--6-6-6--2-2-2-|
E|----------4-4-4--0-0-0-|----------4-4-4--0-0-0-|

Verse
E|-----------------0-0-0-|-----------------0-0-0-|-----------------0-0-0-|
B|-----------------0-0-0-|-----------------0-0-0-|-----------------0-0-0-|
G|-4-4-4-x---------1-1-1-|-4-4-4-x---------1-1-1-|-4-4-4-x---------1-1-1-|
D|-4-4-4-x--6-6-6--2-2-2-|-4-4-4-x--6-6-6--2-2-2-|-4-4-4-x--6-6-6--2-2-2-|
A|-2-2-2-x--6-6-6--2-2-2-|-2-2-2-x--6-6-6--2-2-2-|-2-2-2-x--6-6-6--2-2-2-|
E|----------4-4-4--0-0-0-|----------4-4-4--0-0-0-|----------4-4-4--0-0-0-|

E|---------------------|
B|---------------------|
G|---------------------|
D|-4-4-4-4-4-4-4-4-4-4-|
A|-4-4-4-4-4-4-4-4-4-4-|
E|-2-2-2-2-2-2-2-2-2-2-|

Chorus
E|------------------------------------|--------------------------------------|
B|-2-2-2-2-x--------------------------|-2-2-2-2-x-------------------2-2-2-2--|
G|-2-2-2-2-x-1-1-1-1--4-4-4-4-4-4-4-4-|-2-2-2-2-x-1-1-1-1--4-4-4-4--2-2-2-2--|
D|-2-2-2-2-x-2-2-2-2--4-4-4-4-4-4-4-4-|-2-2-2-2-x-2-2-2-2--4-4-4-4--2-2-2-2--|
A|-0-0-0-0-x-2-2-2-2--2-2-2-2-2-2-2-2-|-0-0-0-0-x-2-2-2-2--2-2-2-2--0-0-0-0--|
E|-----------0-0-0-0------------------|-----------0-0-0-0--------------------|

Bridge (Bass riff played throughout)
E|-------------|--------|--------|--------|--------|--------|--------|-------|
B|-------------|--------|--------|--------|--------|--------|--------|-------|
G|-11~~---11~~-|-9-/-11~|-9-/-11~|-9-/-11~|-9-/-11~|-9-/-11~|-9-/-11~|-9-/-11|
D|-11~~---11~~-|-9-/-11~|-9-/-11~|-9-/-11~|-9-/-11~|-9-/-11~|-9-/-11~|-9-/-11|
A|--9~~----9~~-|-7-/--9~|-7-/--9~|-7-/--9~|-7-/--9~|-7-/--9~|-7-/--9~|-7-/--9|
E|-------------|--------|--------|--------|--------|--------|--------|-------|

E|--------|--------|--------|--------|--------|
B|--------|--------|--------|--------|--------|
G|-9-/-11~|-9-/-11~|-9-/-11~|-9-/-11~|-9-/-11~|
D|-9-/-11~|-9-/-11~|-9-/-11~|-9-/-11~|-9-/-11~|
A|-7-/--9~|-7-/--9~|-7-/--9~|-7-/--9~|-7-/--9~|
E|--------|--------|--------|--------|--------|

Then play this
Outro
E|-------|
B|-------|
G|-9/11~-| about 74 times real fast
D|-9/11~-|
A|-7/-9~-|
E|-------|

Order

Intro
Verse x2
Chorus
Intro
Verse x2
Chorus
Intro x2
Bridge
Outro
And finally end on a few on these (to Longview)

E|------|
B|------|
G|--11~-|
D|--11~-|
A|---9~-|
E|------|


----
Bass
----

Intro
G|-----------------------|-----------------------|
D|-----------------------|-----------------------|
A|-2-2-2-x---------------|-2-2-2-x---------------|
E|----------4-4-4--0-0-0-|----------4-4-4--0-0-0-|

Verse
G|-----------------------|-----------------------|-----------------------|
D|-----------------------|-----------------------|-----------------------|
A|-2-2-2-x---------------|-2-2-2-x---------------|-2-2-2-x---------------|
E|----------4-4-4--0-0-0-|----------4-4-4--0-0-0-|----------4-4-4--0-0-0-|

G|---------------------|
D|---------------------|
A|---------------------|
E|-2-2-2-2-2-2-2-2-2-2-|

Chorus
G|------------------------------------|--------------------------------------|
D|------------------------------------|--------------------------------------|
A|-0-0-0-0-x----------2-2-2-2-2-2-2-2-|-0-0-0-0-x----------2-2-2-2--0-0-0-0--|
E|-----------0-0-0-0------------------|-----------0-0-0-0--------------------|

Bridge
G|-----------------------------|-----------------------------|
D|-----------------------------|-----------------------------|
A|-x-2-2-x-2-x-2-x-------0-0-0-|-x-2-2-x-2-x-2-x-------0-0-0-|
E|------------------4-4-x------|------------------4-4-x------|

Order

Intro
Verse x2
Chorus
Intro
Verse x2
Chorus
Intro x2
Bridge x14


---------------------------------------------------------------------------------
Green Day Longview
---------------------------------------------------------------------------------

------
Guitar
------

Verse (played by Bass)

Pre Chorus
e|--------------------------|
B|--------------------------|
G|-7-7-7-7-7-7-7-7-7-7-7-7--|
D|-7-7-7-7-7-7-7-7-7-7-7-7--|
A|-5-5-5-5-5-5-5-5-5-5-5-5--|
E|--------------------------|

Chorus
e|----------------------------------|----------------------------------|
B|----------------------------------|----------------------------------|
G|--------------------------9-9-9-9-|--------------------------9-9-9-9-|
D|-9-9-9-9-9-9-9-9--7-7-7-7-9-9-9-9-|-9-9-9-9-9-9-9-9--7-7-7-7-9-9-9-9-|
A|-9-9-9-9-9-9-9-9--7-7-7-7-7-7-7-7-|-9-9-9-9-9-9-9-9--7-7-7-7-7-7-7-7-|
E|-7-7-7-7-7-7-7-7--5-5-5-5---------|-7-7-7-7-7-7-7-7--5-5-5-5---------|

e|----------------------------------|----------------------------------|
B|----------------------------------|----------------------------------|
G|--------------------------9-9-9-9-|----------------------------------|
D|-9-9-9-9-9-9-9-9--7-7-7-7-9-9-9-9-|-9-9-9-9-9-9-9-9--7-7-7-7-7-7-7-7-|
A|-9-9-9-9-9-9-9-9--7-7-7-7-7-7-7-7-|-9-9-9-9-9-9-9-9--7-7-7-7-7-7-7-7-|
E|-7-7-7-7-7-7-7-7--5-5-5-5---------|-7-7-7-7-7-7-7-7--5-5-5-5-5-5-5-5-|

Fill 1 (played by Bass)

Bridge ('ive got no motivation')
e|----------------------|----------------------|
B|----------------------|----------------------|
G|-9--9--9---7--7--7--7-|-9--9--9---7--7--7--7-|
D|-9--9--9---7--7--7--7-|-9--9--9---7--7--7--7-|
A|-7--7--7---5--5--5--5-|-7--7--7---5--5--5--5-|
E|----------------------|----------------------|

e|----------------------|----------------------|
B|----------------------|----------------------|
G|-9--9--9---7--7--7--7-|-9--9--9---7--7--7--7-|
D|-9--9--9---7--7--7--7-|-9--9--9---7--7--7--7-|
A|-7--7--7---5--5--5--5-|-7--7--7---5--5--5--5-|
E|----------------------|----------------------|

Pre Chorus 2
e|--------------------------------------------------|
B|--------------------------------------------------|
G|-7-7-7-7-7-7-7-7-7-7-7-7--7-7-7-7-7-7-7-7-7-7-7-7-|
D|-7-7-7-7-7-7-7-7-7-7-7-7--7-7-7-7-7-7-7-7-7-7-7-7-|
A|-5-5-5-5-5-5-5-5-5-5-5-5--5-5-5-5-5-5-5-5-5-5-5-5-|
E|--------------------------------------------------|

Outro
e|---------------|-----------12--12*|---------------|-----------12--12*|
B|-9h10--10--7~--|----9h10---12--12*|-9h10--10--7~--|----9h10---12--12*|
G|-9------9--7~--|--9---------9-----|-9------9--7~--|--9---------9-----|
D|---------------|------------------|---------------|------------------|
A|---------------|------------------|---------------|------------------|
E|---------------|------------------|---------------|------------------|

Order

Intro (played by bass)
Verse (played by bass)
Pre Chorus
Chorus
Fill 1 (played by bass)
Verse (played by bass)
Pre Chorus
Chorus
Bridge
Chorus
Fill 1 x4 (played by bass)
Verse (played by bass)
Pre Chorus 2
Chorus x2
Outro x1 and first bar



----
Bass
----

Intro
G|------|
D|------|
A|-19/5-| (slide real slow)
E|------|

Verse
G|---------------------------------------9-7-6-7-|
D|------9-7-6-------7--6----------9-7-6--0-0-0-0-|
A|-5h7---------7p5-------5---9p7-----------------|
E|-----------------------------------------------|

Pre Chorus
G|---------------------------------------------------------------|
D|------9-7-6-------7--6----------9-7-6--------------------------|
A|-5h7---------7p5-------5---9p7---------5-5-5-5-5-5-5-5-5-5-5-5-|
E|---------------------------------------------------------------|

Chorus
G|----------------------------------|-----------------------------------|
D|----------------------------------|-----------------------------------|
A|--------------------------7-7-7-7-|---------------------------7-7-7-7-|
E|-7-7-7-7-7-7-7-7--5-5-5-5---------|-7-7-7-7-7-7-7-7--5-5-5-5----------|

G|----------------------------------|-----------------------------------|
D|----------------------------------|-----------------------------------|
A|--------------------------7-7-7-7-|-----------------------------------|
E|-7-7-7-7-7-7-7-7--5-5-5-5---------|-7-7-7-7-7-7-7-7--5-5-5-5-5-5-5-5--| 

Fill 1
G|------7---------9----7--6-------|------7---------9----7--6-----------|
D|---------7--7h9---9--------9--7-|---------7--7h9---9--------9--7-----|
A|-9p7----------------------------|-9p7--------------------------------|
E|--------------------------------|------------------------------------|

Bridge ('ive got no motivation')
G|----------------------|----------------------|
D|----------------------|----------------------|
A|-7--7--7---5--5--5--5-|-7--7--7---5--5--5--5-|
E|----------------------|----------------------|

G|----------------------|----------------------|
D|----------------------|----------------------|
A|-7--7--7---5--5--5--5-|-7--7--7---5--5--5--5-|
E|----------------------|----------------------|

Pre Chorus 2
G|---------------------------------------------------------------------|
D|-----9-7-6------7-6--------9-7-6-------------------------------------|
A|-5h7--------7p5-----5--9p7---------5-5-5-5-5-5-5-5-5-5-5-5-5-5-5-5-5-|
E|---------------------------------------------------------------------|

Order

Verse x5
Pre Chorus
Chorus
Fill 1
Verse x3
Pre Chorus
Chorus
Bridge
Chorus
Fill 1 x4
Verse
Pre Chorus 2
Chorus x2
Fill 1 x3


--------------------------------------------------------------------------------------
Green Day 2000 light years away
--------------------------------------------------------------------------------------
Tuning standard

------
Guitar
------

Intro
e|---------------------------------------------------------------------------|
B|---------------------------------------------------------------------------|
G|-4-4-4-4-4---------------4-4-4-4-4---------------4-4-4-4-4-----------------|
D|-4-4-4-4-4--6-4--4-4-4---4-4-4-4-4--6-4--4-4-4---4-4-4-4-4--6-4--4-4-4-----|
A|-2-2-2-2-2--6-4--4-4-4---2-2-2-2-2--6-4--4-4-4---2-2-2-2-2--6-4--4-4-4-----|
E|------------4-2--2-2-2--------------4-2--2-2-2--------------4-2--2-2-2-----|

e|-----------------------|
B|-----------------------|
G|--4-4-4-4--------------|
D|--4-4-4-4--6-4--4-4-4--|
A|--2-2-2-2--6-4--4-4-4--|
E|-----------4-2--2-2-2--|

Verse
e|---------------------------------------------------------------------------|
B|---------------------------------------------------------------------------|
G|-4-4-4-4-4-------------4-4-4-4-4-------------4-4-4-4-4---------------------|
D|-4-4-4-4-4--4-4-4-4-4--4-4-4-4-4--4-4-4-4-4--4-4-4-4-4--4-4-4-4-4----------|
A|-2-2-2-2-2--4-4-4-4-4--2-2-2-2-2--4-4-4-4-4--2-2-2-2-2--4-4-4-4-4----------|
E|------------2-2-2-2-2-------------2-2-2-2-2-------------2-2-2-2-2----------|

e|-----------------------|
B|-----------------------|
G|-4-4-4-4-4-------------|
D|-4-4-4-4-4--4-4-4-4-4--|
A|-2-2-2-2-2--4-4-4-4-4--|
E|------------2-2-2-2-2--|

Chorus
e|---------------------------------------------------------------------------|
B|---------------------------------------------------------------------------|
G|------------4-4-4-4-4------------------------------------------------------|
D|-6-6-6-6-6--4-4-4-4-4--6-x-x-6-x--4-4-4-4-4-4--2-2-2-2-2-2--4-4-4-4-4-4----|
A|-6-6-6-6-6--2-2-2-2-2--6-x-x-6-x--4-4-4-4-4-4--2-2-2-2-2-2--4-4-4-4-4-4----|
E|-4-4-4-4-4-------------4-x-x-4-x--2-2-2-2-2-2--0-0-0-0-0-0--2-2-2-2-2-2----|

e|---------------------------------------------------------------------------|
B|---------------------------------------------------------------------------|
G|------------4-4-4-4-4------------------------------------------------------|
D|-6-6-6-6-6--4-4-4-4-4--6-x-x-6-x--4-4-4-4-4-4--2-2-2-2-2-2--4-4-4-4-4-4----|
A|-6-6-6-6-6--2-2-2-2-2--6-x-x-6-x--4-4-4-4-4-4--2-2-2-2-2-2--4-4-4-4-4-4----|
E|-4-4-4-4-4-------------4-x-x-4-x--2-2-2-2-2-2--0-0-0-0-0-0--2-2-2-2-2-2----|

Verse 2
e|------------------------------------------------------------------|
B|------------------------------------------------------------------|
G|-4-4-4-4-4-------------4-4-4-4-4-------------4-4-4-4-4------------|
D|-4-4-4-4-4--4-4-4-4-4--4-4-4-4-4--4-4-4-4-4--4-4-4-4-4--4-4-4-4-4-|
A|-2-2-2-2-2--4-4-4-4-4--2-2-2-2-2--4-4-4-4-4--2-2-2-2-2--4-4-4-4-4-|
E|------------2-2-2-2-2-------------2-2-2-2-2-------------2-2-2-2-2-|
PM * * * *    * * * *    * * * *    * * * *    * * * *    * * * *  

e|-----------------------|
B|-----------------------|
G|-4-4-4-4-4-------------|
D|-4-4-4-4-4--4-4-4-4-4--|
A|-2-2-2-2-2--2-2-2-2-2--|
E|------------2-2-2-2-2--|	
PM * * * *    * * * *


Order

Intro
Verse
Chorus
Intro
Verse 2
Chorus
Intro
Intro (just bass) x2 (do some scratching stuff)
Verse (just bass) 
Chorus
Intro (hold last chord for a few measures)


----
Bass
----

Intro
G|-----------------------------------------------------------------------|
D|-----------------------------------------------------------------------|
A|-2-2-2-2-2---------------2-2-2-2-2---------------2-2-2-2-2-------------|
E|------------4-2--2-2-2--------------4-2--2-2-2--------------4-2--2-2-2-|

G|----------------------|
D|----------------------|
A|--2-2-2-2-------------|
E|-----------4-2--2-2-2-|

Verse
G|------------------------------------------------------------------|
D|------------------------------------------------------------------|
A|-2-2-2-2-2-------------2-2-2-2-2-------------2-2-2-2-2------------|
E|------------2-2-2-2-2-------------2-2-2-2-2-------------2-2-2-2-2-|

G|----------------------|
D|----------------------|
A|-2-2-2-2-2------------|
E|------------2-2-2-2-2-|

Chorus
G|------------------------------------------------------------------------|
D|------------------------------------------------------------------------|
A|------------2-2-2-2-2---------------------------------------------------|
E|-4-4-4-4-4-------------4-x-x-4-x--2-2-2-2-2-2--0-0-0-0-0-0--2-2-2-2-2-2-|

G|------------------------------------------------------------------------|
D|------------------------------------------------------------------------|
A|------------2-2-2-2-2---------------------------------------------------|
E|-4-4-4-4-4-------------4-x-x-4-x--2-2-2-2-2-2--0-0-0-0-0-0--2-2-2-2-2-2-|

Verse 2
G|-------------------------------------------------------------------|
D|-------------------------------------------------------------------|
A|-2-2-2-2-2-------------2-2-2-2-2-------------2-2-2-2-2-------------|
E|------------2-2-2-2-2-------------2-2-2-2-2-------------2-2-2-2-2--|
PM * * * *    * * * *    * * * *    * * * *    * * * *    * * * *  

G|----------------------|
D|----------------------|
A|-2-2-2-2-2------------|
E|------------2-2-2-2-2-|
PM * * * *    * * * *


Order

Intro
Verse
Chorus
Intro
Verse 2
Chorus
Intro x2
Verse
Chorus
Intro (hold last not for a few measures)


----------------------------------------------------------------------------------
Green Day When I come around
----------------------------------------------------------------------------------
Tuning: half a step down

------
Guitar
------

Intro
E|------|--------------------------|-------------|   
B|------|--------------------------|----8-----5--|    
G|----0-|-------------------7------|----9-----5--|   
D|-x--0-|------5-------7-7--7--7-7-|-9--9--9--5--|  
A|-x----|-5-5--5--5-5--5-5--5--5-5-|-7--7--7--3--|    
E|-x----|-3-3--3--3-3--------------|-------------|    
PM        ***     *********    *******     *

Verse
E|--------------------------|-------------------------|
B|--------------------------|----8-----5-----5--------|
G|-------------------7------|----9-----5-----5--------|
D|------5-------7-7--7--7-7-|-9--9--9--5-----5--7-7---|
A|-5-5--5--5-5--5-5--5--5-5-|-7--7--7--3-----3--5-5---|
E|-3-3--3--3-3--------------|-------------------------|
PM ***     ********     *******     *           ***
 
Chorus
E|-------------------|-----------------|------------------|-----------|
B|-------------------|-5-5-5-5-5-5-5-5-|------------------|-5-5-5-5-5-|
G|-2-2-2-2-2-2-2-2-2-|-5-5-5-5-5-5-5-5-|-2-2-2-2--2-2-2-2-|-5-5-5-5-5-|
D|-2-2-2-2-2-2-2-2-2-|-5-5-5-5-5-5-5-5-|-2-2-2-2--2-2-2-2-|-5-5-5-5-5-|
A|-0-0-0-0-0-0-0-0-0-|-3-3-3-3-3-3-3-3-|-0-0-0-0--0-0-0-0-|-3-3-3-3-3-|
E|-------------------|-----------------|------------------|-----------|

Solo (there are two tracks in the guitar solo here they are
Guitar 1
E|--------------------------|-------------------------|
B|--------------------------|----8-----5-----5--------|
G|-------------------7------|----9-----5-----5--------|
D|------5-------7-7--7--7-7-|-9--9--9--5-----5--7-7---|
A|-5-5--5--5-5--5-5--5--5-5-|-7--7--7--3-----3--5-5---|
E|-3-3--3--3-3--------------|-------------------------|
PM ***     ********     *******     *           ***

Guitar 2
E|--3------------5------------|-3--3-----5---3--3--3--3-|-3--3-3--5--5-|
B|-----3-----3------3-------3-|-3--3-----3---3--3--3--3-|-3--3-3--3--3-|
G|--------0-------------0-----|-0--0--0--0---0--0--0--0-|-0--0-0--0--0-|
D|----------------------------|-------------------------|--------------|
A|----------------------------|-------------------------|--------------|
E|----------------------------|-------------------------|--------------|

Guitar 1
E|--------------------------|-------------------------|
B|--------------------------|----8-----5-----5--------|
G|-------------------7------|----9-----5-----5--------|
D|------5-------7-7--7--7-7-|-9--9--9--5-----5--7-7---|
A|-5-5--5--5-5--5-5--5--5-5-|-7--7--7--3-----3--5-5---|
E|-3-3--3--3-3--------------|-------------------------|
PM ***     ********     *******     *           ***

Guitar 2
E|-5--5--3--3--3--3--3-|---------------------------------------------|
B|-3--3--3--3--3--3--3-|-------5----5-----5------/15-----------------|
G|-0--0--0--0--0--0--0-|-/4----4----4---4h5--------------------------|
D|---------------------|---------------------------------------------|
A|---------------------|---------------------------------------------|
E|---------------------|---------------------------------\12---------|

Outro
E|--------------------------|----------------------|
B|--------------------------|----8-----5-----------|
G|-------------------7------|----9-----5-----------|
D|------5-------7-7--7--7-7-|-9--9--9--5-----------|
A|-5-5--5--5-5--5-5--5--5-5-|-7--7--7--3-----------|
E|-3-3--3--3-3--------------|----------------------|
PM ***     ********     *******     *

Order

Intro
Verse x10
Chorus
Verse x10
Chorus
Verse x2
Solo
Chorus
Verse x3
Outro (play last chord a few times)


----
Bass
----

Intro 
G|--------------|----------------|	
D|--------------|-3h4p3----------|	
A|-(guitar bit)-|--------6-6-----|	
E|--------------|----------------| 
							
Verse 									
G|-----3h4p3--3------------------------------------|	
D|-4-4----------4-------3h4p3--3-----1-1-1---------|
A|------------------4-4----------4---------2~--2-2-|	
E|-------------------------------------------------|	

Chorus
G|-----------------------------2h3p2-|------------------------------4p3-|
D|-----------------------------------|----------------------------------|
A|-----------------2-2-2-2-2-2-------|-----------------2----------------|
E|-4-4-4-4-4-4-4-4-------------------|-4-4-4-4-4-4-4-4------------------|

Outro
G|-----3h4p3--3--------------------------------|
D|-4-4----------4-------3h4p3--3-----1-1-1-----|
A|------------------4-4----------4---------2~--|
E|---------------------------------------------|
 				
Order
     							
Intro
Verse x10
Chorus
Verse x10
Chorus
Verse x2
Verse x2 (while lead guitar is playing a solo)
Chorus
Verse x3
Outro  play last note a few times)


---------------------------------------------------------------------------------
Green Day Burnout
---------------------------------------------------------------------------------
(Starts with: When I come around finishing)

------
Guitar
------

Verse
E|------------------------------------------------------------------------------|
B|------------------------------------------------------------------------------|
G|---------5-5-5-5-5-----------5-5--------------------------7-7-7-7-7-7-7-7-7-7-|
D|-5-5-5-5-5-5-5-5-5--5-5-5-5--5-5-3-3--5-5-5-5--3-3-3-3-3--7-7-7-7-7-7-7-7-7-7-|
A|-5-5-5-5-3-3-3-3-3--5-5-5-5--3-3-3-3--5-5-5-5--3-3-3-3-3--5-5-5-5-5-5-5-5-5-5-|
E|-3-3-3-3------------3-3-3-3------1-1--3-3-3-3--1-1-1-1-1----------------------|

Chorus
E|-----------------------------------------------------------------------------------|
B|-----------------------------------------------------------------------------------|
G|5-5-5-5-------------5-5-----------------5-5-5-5-5-5-------------7-7-7-7-7-7-7-7-7-7|
D|5-5-5-5-5-5-5-5-5-5-5-5-3-3-5-5-5-5-5-5-5-5-5-5-5-5-3-3-3-3-3-3-7-7-7-7-7-7-7-7-7-7|
A|3-3-3-3-5-5-5-5-5-5-3-3-3-3-5-5-5-5-5-5-3-3-3-3-3-3-3-3-3-3-3-3-5-5-5-5-5-5-5-5-5-5|
E|--------3-3-3-3-3-3-----1-1-3-3-3-3-3-3-------------1-1-1-1-1-1--------------------|

Fill 1
E|----------------------------------------------------------------------------|
A|----------------------------------------------------------------------------|
D|--7-7-7-7-7-7-7-7-7-7-7-7--7-7-7-7-7-7-7-7-7-7-7-7--7-7-7-7-7-7-7-7-7-7-7-7-|
G|--7-7-7-7-7-7-7-7-7-7-7-7--7-7-7-7-7-7-7-7-7-7-7-7--7-7-7-7-7-7-7-7-7-7-7-7-|
B|--5-5-5-5-5-5-5-5-5-5-5-5--5-5-5-5-5-5-5-5-5-5-5-5--5-5-5-5-5-5-5-5-5-5-5-5-|
E|----------------------------------------------------------------------------|

Bridge
E|-------------|
A|-------------|
D|-------------|
G|-5-5-x-3-3/5-|
B|-5-5-x-3-3/5-|
E|-3-3-x-1-1/3-|

End
E|--------------------------------------------------------------------|
B|--------------------------------------------------------------------|
G|--------------------------------------------------------------------|
D|-5-5-5-5-5-5-5-5--5-5-5-5-5-5-5-5--5-5-5-5-5-5-5-5--5-5-5-5-5-5-5-5-|
A|-5-5-5-5-5-5-5-5--5-5-5-5-5-5-5-5--5-5-5-5-5-5-5-5--5-5-5-5-5-5-5-5-|
E|-3-3-3-3-3-3-3-3--3-3-3-3-3-3-3-3--3-3-3-3-3-3-3-3--3-3-3-3-3-3-3-3-|

Order

Verse x2
Chorus
Verse x2
Chorus x2
Fill 1 x2
Bridge x4
Chorus x2
Fill 1 
Bridge 
End x4


----
Bass
----

Verse
G|------------------------------------------------------------------------------|
D|------------------------------------------------------------------------------|
A|---------3-3-3-3-3-----------3-3--------------------------5-5-5-5-5-5-5-5-5-5-|
E|-3-3-3-3------------3-3-3-3------1-1--3-3-3-3--1-1-1-1-1----------------------|

Chorus
G|-----------------------------------------------------------------------------------|
D|-----------------------------------------------------------------------------------|
A|3-3-3-3-------------3-3-----------------3-3-3-3-3-3-------------5-5-5-5-5-5-5-5-5-5|
E|--------3-3-3-3-3-3-----1-1-3-3-3-3-3-3-------------1-1-1-1-1-1--------------------|

Fill 1
D|---------------------------------------------------------------------------|
G|---------------------------------------------------------------------------|
B|-5-5-5-5-5-5-5-5-5-5-5-5--5-5-5-5-5-5-5-5-5-5-5-5--5-5-5-5-5-5-5-5-5-5-5-5-|
E|---------------------------------------------------------------------------|

Bridge
D|-------------|
G|-------------|
B|-------------|
E|-5-5-x-1-1/3-|

Order

Verse x2
Chorus
Verse x2
Chorus x2
Fill 1 
Bridge x4
Chorus x2
Fill 1 
Bridge 


---------------------------------------------------------------------------------
Green Day F.O.D
---------------------------------------------------------------------------------

------
Guitar
------

Verse part 1
e|----------------------------------|
b|----------------------------------|
g|----------------------------------|
d|-7-7-7-7-7-7-7-7--7-7-7-7-7-7-7-7-|
a|-7-7-7-7-7-7-7-7--7-7-7-7-7-7-7-7-|
e|-5-5-5-5-5-5-5-5--5-5-5-5-5-5-5-5-|
(Something's on my mind, its been so for some time)

part 2
e|----------------------------------|
b|----------------------------------|
g|----------------------------------|
d|-5-5-5-5-5-5-5-5--5-5-5-5-5-5-5-5-|
a|-5-5-5-5-5-5-5-5--5-5-5-5-5-5-5-5-|
e|-3-3-3-3-3-3-3-3--3-3-3-3-3-3-3-3-|
(Its time im on to you)

Chorus
E|-------------------------------------------------------------------------------|
B|-------------------------------------------------------------------------------|
G|--9-9-9-9-------------7-7-7-7----------------9-9-9-9-----------7-7-7-7-7-7-7-7-|
D|--9-9-9-9--5-5-5-5-5--7-7-7-7--7-7-7-7-7-7---9-9-9-9--5-5-5-5--7-7-7-7-7-7-7-7-|
A|--7-7-7-7--5-5-5-5-5--5-5-5-5--7-7-7-7-7-7---7-7-7-7--5-5-5-5--5-5-5-5-5-5-5-5-|
E|-----------3-3-3-3-3-----------5-5-5-5-5-5------------3-3-3-3------------------|

Fill 1
E|-----------------------|
B|-----------------------|
G|-7-7-7-7-7-7-7-7-7-7-7-|
D|-7-7-7-7-7-7-7-7-7-7-7-|
A|-5-5-5-5-5-5-5-5-5-5-5-|
E|-----------------------|
("to say.. to say..")

Interlude
e|--------------------------|
b|--------------------------|
g|--7-7-x-------7-7-x-------|
d|--7-7-x-7-7-7-7-7-x-5-5-5-|
a|--5-5-x-7-7-7-5-5-x-5-5-5-|
e|--------5-5-5-------3-3-3-|


Order

Verse part 1 x2
Part 2
Verse part 1 x3
Part 2
Verse part 1
Chorus
Verse part 1 x2 (pm)
Part 2 (pm)
Verse part 1 x3 (pm)
Part 2 (pm)
Verse part 1 
Chorus x2
Fill 1
Interlude x6
Chorus x2
Interlude x8 (ring out last chord)

----
Bass
----

(All guitar only until 1.21 where you join with this:

Interlude
G|-------------------------|
D|-------------------------|
A|-5-5-x-------5-5-x-------|
E|-------5-5-5-------3-3-3-|

Chorus
G|---------------------------------------------------------------------------|
D|---------------------------------------------------------------------------|
A|-7-7-7-7------------5-5-5-5---------------7-7-7-7----------5-5-5-5-5-5-5-5-|
E|---------3-3-3-3-3-----------5-5-5-5-5-5-----------3-3-3-3-----------------|

Order

Interlude x6
Chorus x2 
Interlude x9 (ring out last note)

-----------------------------------------------------------------------------
Green Day Armatage Shanks (live)
-----------------------------------------------------------------------------
(Starts with ending of previous song being played - not tabbed)

------
Guitar
------

Intro
e|------------------------------------------------------------------|
B|------------------------------------------------------------------|
G|-9-9-9-9-9-9-9-9-9-9-9-9-9-9-9-9--9-9-9-9-9-9-9-9-9-9-9-9-9-9-9-9-|
D|-9-9-9-9-9-9-9-9-9-9-9-9-9-9-9-9--9-9-9-9-9-9-9-9-9-9-9-9-9-9-9-9-|
A|-7-7-7-7-7-7-7-7-7-7-7-7-7-7-7-7--7-7-7-7-7-7-7-7-7-7-7-7-7-7-7-7-|
E|------------------------------------------------------------------|

Verse
e|--------------------------------------------------------------------------------|
B|--------------------------------------------------------------------------------|
G|----------7-7-7-7-7-----------7-7-7-7-7----------7-7-7-7-7----------------------|
D|-7-7-7-7--7-7-7-7-7--7-7-7-7--7-7-7-7-7--4-4-4-4-7-7-7-7-7--2-2-2-2-2-2-2-2-2-2-|
A|-7-7-7-7--5-5-5-5-5--7-7-7-7--5-5-5-5-5--4-4-4-4-5-5-5-5-5--2-2-2-2-2-2-2-2-2-2-|
E|-5-5-5-5-------------5-5-5-5-------------2-2-2-2------------0-0-0-0-0-0-0-0-0-0-|

Chorus
e|-------------------------------------------------------------------------------|
B|-------------------------------------------------------------------------------|
G|-7-7-7-7---------------------------------7-7-7-7-----------9-9-9-9-9-9-9-9-9-9-|
D|-7-7-7-7--7-7-7-7-7--2-2-2-2--7-7-7-7-7--7-7-7-7--7-7-7-7--9-9-9-9-9-9-9-9-9-9-|
A|-5-5-5-5--7-7-7-7-7--2-2-2-2--7-7-7-7-7--5-5-5-5--7-7-7-7--7-7-7-7-7-7-7-7-7-7-|
E|----------5-5-5-5-5--0-0-0-0--5-5-5-5-5-----------5-5-5-5----------------------|

Bridge
e|---------------------------------------------------------------------------|
B|---------------------------------------------------------------------------|
G|-----------------------------------------7-7-7-7-7-7-7-7--9-9-9-9-9-9-9-9--|
D|-7-7-7-7--4-4-4-4-4--7-7-7-7--4-4-4-4-4--7-7-7-7-7-7-7-7--9-9-9-9-9-9-9-9--|
A|-7-7-7-7--4-4-4-4-4--7-7-7-7--4-4-4-4-4--5-5-5-5-5-5-5-5--7-7-7-7-7-7-7-7--|
E|-5-5-5-5--2-2-2-2-2--5-5-5-5--2-2-2-2-2------------------------------------|

e|------------------------------------------------------------|
B|------------------------------------------------------------|
G|-----------------------------------------7-7-7-7-7-7-7-7--9-|
D|-7-7-7-7--4-4-4-4-4--7-7-7-7--4-4-4-4-4--7-7-7-7-7-7-7-7--9-|
A|-7-7-7-7--4-4-4-4-4--7-7-7-7--4-4-4-4-4--5-5-5-5-5-5-5-5--7-|
E|-5-5-5-5--2-2-2-2-2--5-5-5-5--2-2-2-2-2---------------------|

Order

Intro
Verse x2
Chorus 
Verse x2
Chorus 
Bridge
Verse x2
Chorus x2
Intro


----
Bass
----

Intro
G|------------------------------------------------------------------|
D|------------------------------------------------------------------|
A|-7-7-7-7-7-7-7-7-7-7-7-7-7-7-7-7--7-7-7-7-7-7-7-7-7-7-7-7-7-7-7-7-|
E|------------------------------------------------------------------|

Verse
G|--------------------------------------------------------------------------------|
D|--------------------------------------------------------------------------------|
A|----------5-5-5-5-5-----------5-5-5-5-5----------5-5-5-5-5----------------------|
E|-5-5-5-5-------------5-5-5-5-------------2-2-2-2------------0-0-0-0-0-0-0-0-0-0-|

Chorus
G|-------------------------------------------------------------------------------|
D|-------------------------------------------------------------------------------|
A|-5-5-5-5-------------2-2-2-2-------------5-5-5-5-----------7-7-7-7-7-7-7-7-7-7-|
E|----------5-5-5-5-5--0-0-0-0--5-5-5-5-5-----------5-5-5-5----------------------|

Bridge
G|---------------------------------------------------------------------------|
D|---------------------------------------------------------------------------|
A|-----------------------------------------5-5-5-5-5-5-5-5--7-7-7-7-7-7-7-7--|
E|-5-5-5-5--2-2-2-2-2--5-5-5-5--2-2-2-2-2------------------------------------|

G|------------------------------------------------------------|
D|------------------------------------------------------------|
A|-----------------------------------------5-5-5-5-5-5-5-5--7-|
E|-5-5-5-5--2-2-2-2-2--5-5-5-5--2
Добавлено: 22.07.2012
Другие материалы по этой песне:
  • Аккорды и текст

Страница создана 22.07.2012
http://primanota.ru/green-day/foot-in-mouth-bowling-bowling-bowling-parking-parking-album-chords.htm
Привет, Гость.
Предлагаем пройти революционный курс по гитаре.
Подарок от PrimaNota.Ru, забирай!