PrimaNota.ru - самый крупный в мире бесплатный архив песенных текстов, аккордов, табулатур и нот


Green Day - Eye Of The Tiger - аккорды и текст, таба, бас-таба, видео

Регистрация Запомнить меня
Войти через:  Facebook Google Twitter Vk Yandex Mail.ru

Green Day - Eye Of The Tiger - аккорды и текст, таба, бас-таба, видео

Печатать
Просмотров: 580
Авторы: Frankie Sullivan, Jim Peterik

Eye Of The Tiger
Green Day
e--------
B--------
G--------
D--8-----
A--8-----
E--6-----


e-----------------------------------
B-----------------------------------
G-----------------------------------
D-8-8-8-8-8-8-8-8-8-8-8-8-8-8-8-8---
A-8-8-8-8-8-8-8-8-8-8-8-8-8-8-8-8---
E-6-6-6-6-6-6-6-6-6-6-6-6-6-6-6-6---
* * * * * * * * * * * * * * * *

e--------------------------------------------------
B--------------------------------------------------
G--------------------------------------------------
D--8--88888--8-6-8--88888--8-6-8--88888--8-6-4~----
A--8--88888--8-6-8--88888--8-6-8--88888--8-6-4~----
E--6--66666--6-4-6--66666--6-4-6--66666--6-4-2~----
***** ***** *****


e--------------------------------------------
B--------------------------------------------
G--------------------------------------------
D-8-8-8-8-8-6-8-8-8-8-8-8--6--8-8-8-8-8-6-4~--
A-8-8-8-8-8-6-8-8-8-8-8-8--6--8-8-8-8-8-6-4~--
E-6-6-6-6-6-4-6-6-6-6-6-6--4--6-6-6-6-6-4-2~--

e------------------------------------------
B------------------------------------------
G------------------------------------------
D-4-6-8-8-8-8-8-8-8-8-8-8-8-8-8-8-8-8-8-8--
A-4-6-8-8-8-8-8-8-8-8-8-8-8-8-8-8-8-8-8-8--
E-2-4-6-6-6-6-6-6-6-6-6-6-6-6-6-6-6-6-6-6--
* * * * * * * * * * * * * * * * *


RISE IT UP DA DA DA DAAA
e------------------------------------------
B------------------------------------------
G------------------------------------------
D-8-8-8-8-8-8-8-8-8-8-8-8-8-8-8-8-8-8-8-8--
A-8-8-8-8-8-8-8-8-8-8-8-8-8-8-8-8-8-8-8-8--
E-6-6-6-6-6-6-6-6-6-6-6-6-6-6-6-6-6-6-6-6--
* * * * * * * * * * * * * * * * * * * *

LEFT MY DADA DA DA DAAAA
e------------------------------------------
B------------------------------------------
G------------------------------------------
D-6-6-6-6-6-6-6-6-6-6-6-6-6-6-6-6-6-6-6-6--
A-6-6-6-6-6-6-6-6-6-6-6-6-6-6-6-6-6-6-6-6--
E-4-4-4-4-4-4-4-4-4-4-4-4-4-4-4-4-4-4-4-4--
* * * * * * * * * * * * * * * * * * * *


e--------------------------------
B--------------------------------
G--------------------------------
D-8-8-8-8-8-8-8-8-8-8--8--6--8---
A-8-8-8-8-8-8-8-8-8-8--8--6--8---
E-6-6-6-6-6-6-6-6-6-6--6--4--6---
* * * * * * * * * *


A PLLAAGGHH A DDA DA MY BIGS
e------------------------------------------
B------------------------------------------
G------------------------------------------
D-8-8-8-8-8-8-8-8-8-8-8-8-8-8-8-8-8-8-8-8--
A-8-8-8-8-8-8-8-8-8-8-8-8-8-8-8-8-8-8-8-8--
E-6-6-6-6-6-6-6-6-6-6-6-6-6-6-6-6-6-6-6-6--
* * * * * * * * * * * * * * * * * * * *

GONNA PIPE AND A KEEP DA DA DAAA
e------------------------------------------
B------------------------------------------
G------------------------------------------
D-6-6-6-6-6-6-6-6-6-6-6-6-6-6-6-6-6-6-6-6--
A-6-6-6-6-6-6-6-6-6-6-6-6-6-6-6-6-6-6-6-6--
E-4-4-4-4-4-4-4-4-4-4-4-4-4-4-4-4-4-4-4-4--
* * * * * * * * * * * * * * * * * * * *

e----------------------
B----------------------
G----------------------
D-8-8-8-8-8-8-8-8-8-8--
A-8-8-8-8-8-8-8-8-8-8--
E-6-6-6-6-6-6-6-6-6-6--


EYE OF THE TIGER
e--------------------------------------
B--------------------------------------
G--------------------------------------
D-4-4-4-4-4-4-4-4-6-6-6-6-6-6-6-6-6-6--
A-4-4-4-4-4-4-4-4-6-6-6-6-6-6-6-6-6-6--
E-2-2-2-2-2-2-2-2-4-4-4-4-4-4-4-4-4-4--

EYE OF THE TIGER
e--------------------------------------
B--------------------------------------
G-------------------------------------- Slowing down
D-4-4-4-4-4-4-4-4-6-6-6-6-6-6-6-6-6-6--
A-4-4-4-4-4-4-4-4-6-6-6-6-6-6-6-6-6-6--
E-2-2-2-2-2-2-2-2-4-4-4-4-4-4-4-4-4-4--

EYE OF THE TIGER
e--------------------------------------
B--------------------------------------
G-------------------------------------- Slowing Down More
D-4-4-4-4-4-4-4-4-6-6-6-6-6-6-6-6-6-6--
A-4-4-4-4-4-4-4-4-6-6-6-6-6-6-6-6-6-6--
E-2-2-2-2-2-2-2-2-4-4-4-4-4-4-4-4-4-4--

EYE OF THE TIGER
e--------------------------------------
B--------------------------------------
G-------------------------------------- Really Slow
D-4-4-4-4-4-4-4-4-6-6-6-6-6-6-6-6-6-6~--
A-4-4-4-4-4-4-4-4-6-6-6-6-6-6-6-6-6-6~--
E-2-2-2-2-2-2-2-2-4-4-4-4-4-4-4-4-4-4~--


1. Then there's a bass riff

2. Then Billie Joe Plays a part of master of puppets by metallica :

e--------------------------------------------------
B--------------------------------------------------
G--------------------------------------------------
D--------------------------------------------------
A------2-----3-----4-----3-----2-2-----2-----3-----
E--0-0---0-0---0-0---0-0---0-0-----0-0---0-0---0---
* * * * * * * * * * * * * * *


e---------------------------------
B---------------------------------
G---------------------------------
D---------------------------------
A--5/4/2-----5/4/2----5/4/2---2---
E--3/2/0-----3/2/0----3/2/0---0---
Добавлено: 21.02.2014
Другие материалы по этой песне:
  • Аккорды и текст

Страница создана 08.03.2012
http://primanota.ru/green-day/eye-of-the-tiger-chords.htm
Привет, Гость.
Предлагаем пройти революционный курс по гитаре.
Подарок от PrimaNota.Ru, забирай!