PrimaNota.ru - самый крупный в мире бесплатный архив песенных текстов, аккордов, табулатур и нот


Green Day - Emenus Sleepus - аккорды и текст, видео

Регистрация Запомнить меня
Войти через:  Facebook Google Twitter Vk Yandex Mail.ru

Green Day - Emenus Sleepus - аккорды и текст, видео

Печатать
Просмотров: 235
Уроки эстрадного вокала в Санкт-Петербурге
Emenus Sleepus
Green Day
Author/Artist: grren day
Title: enemius sleepus
Album: dookie
Transcribed by: danny williams
Email: doodar@hotmail.com

e-mail me with comments and stuff


------------------------------------------------------------------------------|
------------------------------------------------------------------------------|
-99-----99-----99-------------------------------------------------------------|
-99-999-99-999-99-999-77-999--------------------------------------------------|
-77-999-77-999-77-999-77-999--------------------------------------------------|
----777----777----777-55-777--------------------------------------------------|
 repeat a load of times

----------0-------------------------------------------------------------------|
------------0-----------------------------------------------------------------|
--2-2--2------2---------------------------------------------------------------|
--2-2--2----------------------------------------------------------------------|
--0-0--0----------------------------------------------------------------------|
------------------------------------------------------------------------------|
 enybody ever say no   do that twice more   then

------------------------------------------------------------------------------|
------------------------------------------------------------------------------|
-2-2-2-2-2-2-2-2-2-2-2--------------------------------------------------------|
-2-2-2-2-2-2-2-2-2-2-2--44-4-4------------------------------------------------|
-0-0-0-0-0-0-0-0-0-0-0--44-4-4------------------------------------------------|
------------------------22-2-2------------------------------------------------|
 did you........  and you know its true   end
Добавлено: 24.04.2012
Другие материалы по этой песне:
  • Аккорды и текст

Страница создана 24.04.2012
http://primanota.ru/green-day/emenus-sleepus-chords.htm
Привет, Гость.
Предлагаем пройти революционный курс по гитаре.
Подарок от PrimaNota.Ru, забирай!