PrimaNota.ru - самый крупный в мире бесплатный архив песенных текстов, аккордов, табулатур и нот


Green Day - Dissappearing Boy - таба, видео

Регистрация Запомнить меня
Войти через:  Facebook Google Twitter Vk Yandex Mail.ru

Green Day - Dissappearing Boy - таба, видео

Печатать
Просмотров: 213
-------------------------------------------------------------------------------
                             DISAPPEARING BOY – Green Day
-------------------------------------------------------------------------------
Tabbed by: Thedboy

Tuning: Standard

| /  slide up
| \  slide down
| h  hammer-on
| p  pull-off
| ~  vibrato
| +  harmonic
| x  Mute note



Intro (part 1) Played with a wah-wah pedal.  
e------------------------------------0-----------------------------------------------|
B--------------------------------------3---------------------------------------------|
G-----------------4-33-----5-44-2222-----2-------------------------------------------|
D-------2----444--4-44-555-5-55-2222-------------------------------------------------|
A---000------444-------555------0000-------------------------------------------------|
E---------22-222-------333-----------------------------------------------------------|
    ***      ***       ***      ****
Continued (without wah-wah.)  

e---------------------------------------------------------------------------|
B—---------------------------33333333---------------------------------------|
G-22222222-------------------22222222---------------------------------------|
D-22222222-44444444-55555555-00000000---------------------------------------|
A-00000000-44444444-55555555------------------------------------------------|
E----------22222222-33333333------------------------------------------------|
  ******** ******** ******** *******

Verse (x4)
 
e---0000-------------------------------------------------------------------|
B---0000---0000-------33333------------------------------------------------|
G-222222---0000-------22222------------------------------------------------| 
D-222222-444444-55555-00000------------------------------------------------|
A-000000-444444-55555------------------------------------------------------|
E--------222222-33333------------------------------------------------------|
  
Chorus (x4)

e|---------------------------------------------------------------------------|
B|---------------------------------------------------------------------------|
G|-44444-55555---------------------------------------------------------------|
D|-44444-55555-555555555555--------------------------------------------------|
A|-22222-33333-555555555555--------------------------------------------------|
E|-------------333333333333--------------------------------------------------|

Break

Let all ring
e|-----0--------0-------0-------0-------2h3p2-----0-------0-------0-------0---|
B|-------3--------3-------3-------3-----------------3-------3-------3-------3-|
G|----------------------------------------------------------------------------|
D|-0-0------------------------------0-0-------------------------------0-0-----|
A|----------3-3-----2-2-----0-0---------------3-3-----2-2-----0-0-------------|
E|----------------------------------------------------------------------------|
   
           |start singing here
e|-----0--------0-------0----------------------------------------------------|
B|-------3--------3-------3---3~--3~--3~-------------------------------------|
G|----------------------------2~--0~--0~--22222222---------------------------|
D|----------------------------0~--0~--0~--22222222---------------------------|
A|-3-3------2-2-----0-0-----------3~--2~--00000000---------------------------|
E|---------------------------------------------------------------------------|
                                          ********
End on (played with slight tremolo)

e|---------------------------------------------------------------------------|
B|---------------------------------------------------------------------------|
G|-2~------------------------------------------------------------------------|
D|-2~------------------------------------------------------------------------|
A|-0~------------------------------------------------------------------------|
E|---------------------------------------------------------------------------|

===============================================================================

Добавлено: 01.07.2012
Другие материалы по этой песне:
  • Аккорды и текст

Страница создана 01.07.2012
http://primanota.ru/green-day/dissappearing-boy-chords.htm
Привет, Гость.
Предлагаем пройти революционный курс по гитаре.
Подарок от PrimaNota.Ru, забирай!