PrimaNota.ru - самый крупный в мире бесплатный архив песенных текстов, аккордов, табулатур и нот


Green Day - Bullet In A Bible (album) - таба, бас-таба, видео

Регистрация Запомнить меня
Войти через:  Facebook Google Twitter Vk Yandex Mail.ru

Green Day - Bullet In A Bible (album) - таба, бас-таба, видео

Печатать
Просмотров: 415
----------------------------------------------------------------------------------
Green Day
Bullet In A Bible
Guitar Tablature For The Entire Album
Tabbed By: guitar_player5
Tuning: Check Each Individual Song
E-mail Address: noodleman5@msn.com
----------------------------------------------------------------------------------|
----------------------------------------------------------------------------------|
This is the guitar tablature for all of the songs on 'Bullet in a Bible.'  I have
all of the additional stuff that the band through into the songs that night in Milton 
England.

I tabbed all of these songs while I was listening to the movie and not the Audio CD.
you can watch the movie and play along with the guys at the same time.  It sort of feels
you are playing in front of the 65,000 people that were in attendance that night.

If you plan on playing these songs along with the Audio CD, you will have some
 The Audio CD slightly differs from the DVD.  The Audio CD cuts out some of the parts 
are
on the DVD.  If you want me to fix the songs so that you can play with the CD, simply 
me and let me know.  I will get it to you as soon as possible.
----------------------------------------------------------------------------------|
----------------------------------------------------------------------------------|
Songs:
Track 1   American Idiot
Track 2   Jesus of Suburbia
	       I.   Jesus of Suburbia
	       II.  City of the Damned
	       III. I Don't Care
	       IV.  Dearly Beloved
	       V.   Tales of Another Broken Home
Track 3   Holiday
Track 4   Are We The Waiting
Track 5   St. Jimmy
Track 6   Longview
Track 7   Hitchin' A Ride
Track 8   Brain Stew
Track 9   Basket Case
Track 10  King For A Day/ Shout
Track 11  Wake Me Up When September Ends
Track 12  Minority
Track 13  Boulevard of Broken Dreams
Track 14  Good Riddance (Time of Your Life)
----------------------------------------------------------------------------------|
----------------------------------------------------------------------------------|
Green Day
American Idiot
----------------------------------------------------------------------------------
Guitar 1 - Billie Joe Armstrong (Standard Tuning)
Guitar 2 - Jason White          (Standard Tuning)

Intro: (Guitar 1 w/ EQ Filter Effect)
E|---------------------|
B|---------------------|
G|---------------------|
D|----xxxxxxxxxxxxxxx--|
A|----xxxxxxxxxxxxxxx--|
E|-0--xxxxxxxxxxxxxxx--|

E|----------------------------------------|
B|----------------------------------------|
G|----------6-6-6-----------6-------------|
D|-6-6-6----6-6-6----4-4----6----6----4---|
A|-6-6-6----4-4-4----4-4----4----6----4---|
E|-4-4-4-------------2-2---------4----2---|

Verse: (Guitar 1 & 2 w/ distortion)
E|------------------------------------0---|
B|------------------------------------0---|
G|----------6-6-6-----------6---------0---|
D|-6-6-6----6-6-6----4-4----6----6--------|
A|-6-6-6----4-4-4----4-4----4----6--------|
E|-4-4-4-------------2-2---------4--------|

E|----------------------------------------|
B|----------------------------------------|
G|----------6-6-6-----------6-------------|
D|-6-6-6----6-6-6----4-4----6----6----4---|
A|-6-6-6----4-4-4----4-4----4----6----4---|
E|-4-4-4-------------2-2---------4----2---|

E|------------------------------------0---|
B|------------------------------------0---|
G|----------6-6-6-----------6---------0---|
D|-6-6-6----6-6-6----4-4----6----6--------|
A|-6-6-6----4-4-4----4-4----4----6--------|
E|-4-4-4-------------2-2---------4--------|
(Pause For Lyrics)

E|----------------------------------------|
B|----------------------------------------|
G|----------6-6-6-----------6-------------|
D|-6-6-6----6-6-6----4-4----6----6----4---|
A|-6-6-6----4-4-4----4-4----4----6----4---|
E|-4-4-4-------------2-2---------4----2---|
(Pause For Lyrics)

E|------------------------------------0---|
B|------------------------------------0---|
G|----------6-6-6-----------6---------0---|
D|-6-6-6----6-6-6----4-4----6----6--------|
A|-6-6-6----4-4-4----4-4----4----6--------|
E|-4-4-4-------------2-2---------4--------|
(Pause For Lyrics)

E|----------------------------------------|
B|----------------------------------------|
G|----------6-6-6-----------6-------------|
D|-6-6-6----6-6-6----4-4----6----6----4---|
A|-6-6-6----4-4-4----4-4----4----6----4---|
E|-4-4-4-------------2-2---------4----2---|
(Pause For Lyrics)

E|----------------------------------------|
B|----------------------------------------|
G|----------6-6-6-----------6-------------|
D|-6-6-6----6-6-6----4-4----6----6----4---|
A|-6-6-6----4-4-4----4-4----4----6----4---|
E|-4-4-4-------------2-2---------4----2---|

Chorus: (Guitar 1 & 2 w/ distortion)
E|-----------------------------------------------------------------------|
B|-----------------------------------------------------------------------|
G|-66666666------------88888888------------66666666------------88888888--|
D|-66666666--66666666--88888888--66666666--66666666--66666666--88888888--|
A|-44444444--66666666--66666666--66666666--44444444--66666666--66666666--|
E|-----------44444444------------44444444------------44444444------------|

Verse: (Guitar 1 & 2 w/ distortion)
E|----------------------------------------|
B|----------------------------------------|
G|----------6-6-6-----------6-------------|
D|-6-6-6----6-6-6----4-4----6----6----4---|
A|-6-6-6----4-4-4----4-4----4----6----4---|
E|-4-4-4-------------2-2---------4----2---|

E|------------------------------------0---|
B|------------------------------------0---|
G|----------6-6-6-----------6---------0---|
D|-6-6-6----6-6-6----4-4----6----6--------|
A|-6-6-6----4-4-4----4-4----4----6--------|
E|-4-4-4-------------2-2---------4--------|
(Pause For Lyrics)

E|----------------------------------------|
B|----------------------------------------|
G|----------6-6-6-----------6-------------|
D|-6-6-6----6-6-6----4-4----6----6----4---|
A|-6-6-6----4-4-4----4-4----4----6----4---|
E|-4-4-4-------------2-2---------4----2---|
(Pause For Lyrics)

E|------------------------------------0---|
B|------------------------------------0---|
G|----------6-6-6-----------6---------0---|
D|-6-6-6----6-6-6----4-4----6----6--------|
A|-6-6-6----4-4-4----4-4----4----6--------|
E|-4-4-4-------------2-2---------4--------|
(Pause For Lyrics)

E|----------------------------------------|
B|----------------------------------------|
G|----------6-6-6-----------6-------------|
D|-6-6-6----6-6-6----4-4----6----6----4---|
A|-6-6-6----4-4-4----4-4----4----6----4---|
E|-4-4-4-------------2-2---------4----2---|
(Pause For Lyrics)

E|----------------------------------------|
B|----------------------------------------|
G|----------6-6-6-----------6-------------|
D|-6-6-6----6-6-6----4-4----6----6----4---|
A|-6-6-6----4-4-4----4-4----4----6----4---|
E|-4-4-4-------------2-2---------4----2---|

Chorus: (Guitar 1 & 2 w/ distortion)
E|-----------------------------------------------------------------------|
B|-----------------------------------------------------------------------|
G|-66666666------------88888888------------66666666------------88888888--|
D|-66666666--66666666--88888888--66666666--66666666--66666666--88888888--|
A|-44444444--66666666--66666666--66666666--44444444--66666666--66666666--|
E|-----------44444444------------44444444------------44444444------------|

Instrumental: (Guitars 1 & 2 w/ Distortion)
E|----------------------------------------|
B|----------------------------------------|
G|----------6-6-6-----------6-------------|
D|-6-6-6----6-6-6----4-4----6----6----4---|
A|-6-6-6----4-4-4----4-4----4----6----4---|
E|-4-4-4-------------2-2---------4----2---|

E|------------------------------------0---|
B|------------------------------------0---|
G|----------6-6-6-----------6---------0---|
D|-6-6-6----6-6-6----4-4----6----6--------|
A|-6-6-6----4-4-4----4-4----4----6--------|
E|-4-4-4-------------2-2---------4--------|

E|----------------------------------------|
B|----------------------------------------|
G|----------6-6-6-----------6-------------|
D|-6-6-6----6-6-6----4-4----6----6----4---|
A|-6-6-6----4-4-4----4-4----4----6----4---|
E|-4-4-4-------------2-2---------4----2---|

E|----------------------------------------|
B|----------------------------------------|
G|----------6-6-6-----------6-------------|
D|-6-6-6----6-6-6----4-4----6----6----4---|
A|-6-6-6----4-4-4----4-4----4----6----4---|
E|-4-4-4-------------2-2---------4----2---|

Guitar Solo: (Guitar 1 w/ Distortion (Rhythm Guitar))
E|-----------------------------------------------------------------------|
B|-----------------------------------------------------------------------|
G|-66666666------------88888888------------66666666------------88888888--|
D|-66666666--66666666--88888888--66666666--66666666--66666666--88888888--|
A|-44444444--66666666--66666666--66666666--44444444--66666666--66666666--|
E|-----------44444444------------44444444------------44444444------------|

(Guitar 2 w/ Distortion (Lead Guitar))
E|-----------------------------------------------------------------------------|
B|-----------------------------------------------------------------------------|
G|------------------------------33333-5-6-(6)-5-33333/8------------------------|
D|-----------------------------------------------------------------------------|
A|-8888888-66-4--66666-8-6-4-3-------------------------------------------------|
E|-----------------------------------------------------------------------------|

E|-----------------------8-----------------------------------------------------|
B|------9-------11---------------11-----9--(9)---------------------------------|
G|-8-8-----8-8------8-8-----8-8------8-----------------------------------------|
D|-----------------------------------------------------------------------------|
A|----------------------------------------------8888888-66-4--66666-8-6-4-3----|
E|-----------------------------------------------------------------------------|

E|-----------------------------|
B|--------------------------9--|
G|-33333-5-6-(6)-5--3-(3)/8----|
D|-----------------------------|
A|-----------------------------|
E|-----------------------------|

Interlude: (Guitar 2 w/ Distortion (Rhythm Guitar))
E|----------------------------------------|
B|----------------------------------------|
G|----------6-6-6-----------6-------------| (x4)
D|-6-6-6----6-6-6----4-4----6----6----4---|
A|-6-6-6----4-4-4----4-4----4----6----4---|
E|-4-4-4-------------2-2---------4----2---|

 (Guitar 1 w/ Distortion (Lead Guitar))
E|---------------|---------------|---------------|-----------------------------|
B|-9---9---9---9-|-9---9---9---9-|-9---9---9---9-|-9---9---9---9---------------|
G|---8---8---8---|---8---8---8---|---8---8---8---|---8---8---8-----------------|
D|---------------|---------------|---------------|-----------------------------|
A|---------------|---------------|---------------|-----------------------------|
E|---------------|---------------|---------------|---------------(Let-It-Ring)-|

Bridge: (Guitar 2 w/ Distortion)
E|----------------------------------------|
B|----------------------------------------|
G|----------6-6-6-----------6-------------| (x21)
D|-6-6-6----6-6-6----4-4----6----6----4---|
A|-6-6-6----4-4-4----4-4----4----6----4---|
E|-4-4-4-------------2-2---------4----2---|

E|----------------------------------------|
B|----------------------------------------|
G|----------6-6-6-----------6-------------|
D|-6-6-6----6-6-6----4-4----6----6----4---|
A|-6-6-6----4-4-4----4-4----4----6----4---|
E|-4-4-4-------------2-2---------4----2---|

E|----------------------------------------|
B|----------------------------------------|
G|----------6-6-6-----------6-------------|
D|-6-6-6----6-6-6----4-4----6----6----4---|
A|-6-6-6----4-4-4----4-4----4----6----4---|
E|-4-4-4-------------2-2---------4----2---|

E|----------------------------------------|
B|----------------------------------------|
G|----------6-6-6-----------6-------------|
D|-6-6-6----6-6-6----4-4----6----6----4---|
A|-6-6-6----4-4-4----4-4----4----6----4---|
E|-4-4-4-------------2-2---------4----2---|

E|----------------------------------------|
B|----------------------------------------|
G|--"It's-Calling-Out-To-Idiot-America."--|
D|----------------------------------------|
A|----------------------------------------|
E|----------------------------------------|

Chorus: (Guitar 1 & 2 w/ distortion)
E|------------------------------------------------------------------------|
B|------------------------------------------------------------------------|
G|-66666666------------88888888------------66666666------------88888888---|
D|-66666666--66666666--88888888--66666666--66666666--66666666--88888888---|
A|-44444444--66666666--66666666--66666666--44444444--66666666--66666666---|
E|-----------44444444------------44444444------------44444444-------------|

Instrumental: (Guitar 2 w/ Distortion)(Drums)
E|----------------------------------------|
B|----------------------------------------|
G|----------6-6-6-----------6-------------|
D|-6-6-6----6-6-6----4-4----6----6----4---|
A|-6-6-6----4-4-4----4-4----4----6----4---|
E|-4-4-4-------------2-2---------4----2---|

Instrumental: (Guitars 1 & 2 w/ Distortion)
E|----------------------------------------|
B|----------------------------------------|
G|----------6-6-6-----------6-------------|
D|-6-6-6----6-6-6----4-4----6----6----4---|
A|-6-6-6----4-4-4----4-4----4----6----4---|
E|-4-4-4-------------2-2---------4----2---|

E|------------------------------------0---|
B|------------------------------------0---|
G|----------6-6-6-----------6---------0---|
D|-6-6-6----6-6-6----4-4----6----6--------|
A|-6-6-6----4-4-4----4-4----4----6--------|
E|-4-4-4-------------2-2---------4--------|

E|----------------------------------------|
B|----------------------------------------|
G|----------6-6-6-----------6-------------|
D|-6-6-6----6-6-6----4-4----6----6----4---|
A|-6-6-6----4-4-4----4-4----4----6----4---|
E|-4-4-4-------------2-2---------4----2---|

Ending: (Guitar 2 w/ EQ Filter Effect)
E|-------------------------------------|
B|-------------------------------------|
G|----------6-6-6-----------6-6--------|
D|-6-6-6----6-6-6----4-4----6-6----4---|
A|-6-6-6----4-4-4----4-4----4-4----4---|
E|-4-4-4-------------2-2-----------2---|

Lyrics:
(Verse)
Don't Want To Be An American Idiot
Don't Want A Nation Under The New Mania
Can You Hear The Sound Of Hysteria
The Subliminal Mind Fuck America

Alright!

(Chorus)
Welcome To A New Kind Of Tension
All Across The Alien Nation
Where Everything Isn't Meant To Be Okay
Television Dreams Of Tomorrow
We're Not The Ones Meant To Follow
For That's Enough To Argue

England!

(Verse)
Well Maybe I'm The Faggot America
I'm Not Apart Of A Redneck Agenda
Now Everybody Do The Propaganda
And Sing Along To The Age Of Paranoia

Alright!

(Chorus)
Welcome To A New Kind Of Tension
All Across The Alien Nation
Where Everything Isn't Meant To Be Okay
Television Dreams Of Tomorrow
We're Not The Ones Meant To Follow
For That's Enough To Argue

Alright England!
Are you guys ready to sing along?
I want you to sing so loud that every fucking redneck in America hears you tonight, Alright?

(Bridge)
Don't Want To Be An American Idiot
One Nation Controlled By The Media
Information Age Of Hysteria
Go!
It's Calling Out To Idiot America

(Chorus)
Welcome To A New Kind Of Tension
All Across The Alien Nation
Where Everything Isn't Meant To Be Okay
Television Dreams Of Tomorrow
We're Not The Ones Meant To Follow
For That's Enough To Argue

----------------------------------------------------------------------------------
Green Day
Jesus of Suburbia
----------------------------------------------------------------------------------
Guitar 1 - Billie Joe Armstrong (Standard Tuning)
Guitar 2 - Jason White          (Standard Tuning)

----------------------------------------------------------------------------------
I. Jesus of Suburbia
----------------------------------------------------------------------------------
Verse: (Guitar 1 & 2 w/ Distortion)
E|---------------------------------------------------------|
B|---------------------------------------------------------|
G|-6-6-6-6-------------------------------------------------|
D|-6-6-6-6----8-8-8-8----444444444444444--666666666666666--|
A|-4-4-4-4----8-8-8-8----444444444444444--666666666666666--|
E|------------6-6-6-6----222222222222222--444444444444444--|

E|---------------------------------------------------------|
B|---------------------------------------------------------|
G|-6-6-6-6-------------------------------------------------|
D|-6-6-6-6----8-8-8-8----444444444444444--666666666666666--|
A|-4-4-4-4----8-8-8-8----444444444444444--666666666666666--|
E|------------6-6-6-6----222222222222222--444444444444444--|

Chorus: (Guitar 1 & 2 w/ Distortion)
E|------------------------------------------------|
B|------------------------------------------------|
G|------------------------------------------------|
D|-444444--666666--444444--666666--444444--66666--|
A|-444444--666666--444444--666666--444444--66666--|
E|-222222--444444--222222--444444--222222--44444--|

Bridge: (Guitar 1 & 2 w/ Distortion)
e|---------------------------------------------|
B|---------------------------------------------|
G|-6-6--------------------6-6------------------|
D|-6-6--6-6--4-4444444----6-6--6-6--4-4444444--|
A|-4-4--6-6--4-4444444----4-4--6-6--4-4444444--|
E|------4-4--2-2222222---------4-4--2-2222222--|

Verse: (Guitar 1 & 2 w/ Distortion)
e|---------------------------------------------------------|
B|---------------------------------------------------------|
G|-6-6-6-6-------------------------------------------------|
D|-6-6-6-6----8-8-8-8----444444444444444--666666666666666--|
A|-4-4-4-4----8-8-8-8----444444444444444--666666666666666--|
E|------------6-6-6-6----222222222222222--444444444444444--|

e|---------------------------------------------------------|
B|---------------------------------------------------------|
G|-6-6-6-6-------------------------------------------------|
D|-6-6-6-6----8-8-8-8----444444444444444--666666666666666--|
A|-4-4-4-4----8-8-8-8----444444444444444--666666666666666--|
E|------------6-6-6-6----222222222222222--444444444444444--|

Chorus: (Guitar 1 & 2 w/ Distortion)
e|------------------------------------------------|
B|------------------------------------------------|
G|------------------------------------------------|
D|-444444--666666--444444--666666--444444--66666--|
A|-444444--666666--444444--666666--444444--66666--|
E|-222222--444444--222222--444444--222222--44444--|

Bridge: (Guitar 1 & 2 w/ Distortion)
e|---------------------------------------------|
B|---------------------------------------------|
G|-6-6--------------------6-6------------------|
D|-6-6--6-6--4-4444444----6-6--6-6--4-4444444--|
A|-4-4--6-6--4-4444444----4-4--6-6--4-4444444--|
E|------4-4--2-2222222---------4-4--2-2222222--|
“Ladies and Gentlemen, Tre Cool!”

Instrumental: (Guitar 1 & 2 w/ Distortion)
e|---------------------------------------------------------|
B|---------------------------------------------------------|
G|-6-6-6-6-------------------------------------------------|
D|-6-6-6-6----8-8-8-8----444444444444444--666666666666666--|
A|-4-4-4-4----8-8-8-8----444444444444444--666666666666666--|
E|------------6-6-6-6----222222222222222--444444444444444--|

e|--------------------------------------|
B|--------------------------------------|
G|-6-6-6-6------------------------------|
D|-6-6-6-6----3-3-3-3----8-8-8--6-6-6---|
A|-4-4-4-4----3-3-3-3----8-8-8--6-6-6---|
E|------------1-1-1-1----6-6-6--4-4-4---|

Lyrics:
(Introduction)
This song is dedicated to everyone who took the train to get here tonight.
Alright!  This song is called 'Jesus of Suburbia.'

(Verse)
I'm the son of rage and love
The Jesus of Suburbia
From the bible of none of the above
On a steady diet of

Soda pop and Ritalin
No one ever died for my sins in hell
As far as I can tell
At least the ones I've gotten away with

(Chorus)
And there's nothing wrong with me
This is how I'm suppose to be
In the land of...
Everyone!
That don't believe in me

(Verse)
Get my television fixed
Sitting on my crucifix
The living room on my private womb
While the moms and brats are away

To fall in love and fall in debt
To alcohol and cigarettes
And Mary Jane to keep me insane
Doing someone else's cocaine

(Chorus)
And there's nothing wrong with me
This is how I'm suppose to be
In the land of...
Everyone!
That don't believe in me

Ladies and Gentlemen, Tre Cool!

----------------------------------------------------------------------------------
II. City of the Damned
----------------------------------------------------------------------------------
Intro: (Guitar 2 w/ Distortion)
e|-------------------------|
B|-------------------------|
G|-------------------------|
D|-4-------------------6---|
A|-4-------------------6---|
E|-2--(Let-It-Ring)----4---|

Verse: (Guitar 1 & 2 w/ Distortion)
e|----------------------------------------|
B|----------------------------------------|
G|----------------------------------------|
D|--------------------44444444--66666666--|
A|-4---3---1----------44444444--66666666--|
E|-------------4------22222222--44444444--|

e|----------------------------------------------|
B|----------------------------------------------|
G|----------------------------------------------|
D|--------------------------44444444--66666666--|
A|-4---6p-3----1---3p-------44444444--66666666--|
E|--------------------4-----22222222--44444444--|

Chorus: (Guitar 1 & 2 w/ Distortion)
e|-------------------------------------------------------|
B|-------------------------------------------------------|
G|---------------66666-----------------------------------|
D|-88888--66666--66666--44444----88888--66666--44444444--|
A|-88888--66666--44444--44444----88888--66666--44444444--|
E|-66666--44444---------22222----66666--44444--22222222--|

e|--------------------------------------------------------------|
B|--------------------------------------------------------------|
G|---------------66666------------------------------------------|
D|-88888--66666--66666--44444----88888--66666--4----------------|
A|-88888--66666--44444--44444----88888--66666--4----------------|
E|-66666--44444---------22222----66666--44444--2-(Let-It-Ring)--|

Verse: (Guitar 1 & 2 w/ Distortion)
e|--------------------------------------|
B|--------------------------------------|
G|-6---5---3----------------------------|
D|-6---5---3---6----44444444--66666666--|
A|-4---3---1---6----44444444--66666666--|
E|-------------4----22222222--44444444--|

e|----------------------------------------------|
B|----------------------------------------------|
G|----------------------------------------------|
D|--------------------------44444444--66666666--|
A|-4---6p-3----1---3p-------44444444--66666666--|
E|--------------------4-----22222222--44444444--|

Chorus: (Guitar 1 & 2 w/ Distortion)
e|-------------------------------------------------------|
B|-------------------------------------------------------|
G|---------------66666-----------------------------------|
D|-88888--66666--66666--44444----88888--66666--44444444--|
A|-88888--66666--44444--44444----88888--66666--44444444--|
E|-66666--44444---------22222----66666--44444--22222222--|

e|-------------------------------------------------------|
B|-------------------------------------------------------|
G|---------------66666-----------------------------------|
D|-88888--66666--66666--44444----88888--66666--44444444--|
A|-88888--66666--44444--44444----88888--66666--44444444--|
E|-66666--44444---------22222----66666--44444--22222222--|

Lyrics:
(Verse)
At the center of the earth
In the parking lot
Of the Seven-Eleven where I was taught
The motto was just a lie

It says home is where the heart is
But what a shame
Cause everyone's heart doesn't beat the same
We're beating out of time

Get those fists in the air!

(Chorus)
City of the dead
At the end of another lost highway
Signs misleading to nowhere

Alright!

City of the damned
Lost children with their dirty faces today
No one really seems to care

Get those hands up!

(Verse)
I read the graffiti
In the bathroom stall
Like the holy scriptures of the shopping mall
And so it seemed to confess

It didn't say much
But it confirmed that
The center of the earth is the end of the world
And I could really care less

Get those fists in the air!

(Chorus)
City of the dead
At the end of another lost highway
Signs misleading to nowhere

One more time!

City of the damned
Lost children with their dirty faces today
No one really seems to care

----------------------------------------------------------------------------------
III. I Don't Care
----------------------------------------------------------------------------------
Intro: (Guitar 1 w/ Distortion)
e|--------------------------------------------|
B|--------------------------------------------|
G|-------666--------666--------666------------|
D|-6666--666--6666--666--4444--666--66666666--|
A|-6666--444--6666--444--4444--444--66666666--|
E|-4444-------4444-------2222-------44444444--|

Intro lead: (Guitar 2 w/ Distortion)
e|-----------------------------------------------------------------|
B|----------------------------------/7-7--77-------------------9v--|
G|----------6-6-6-----------10-8-6------------10-8-6--8-8--88------|
D|-6-6--66---------6-6--66-----------------------------------------|
A|-----------------------------------------------------------------|
E|-----------------------------------------------------------------|

Verse: (Guitar 1 & 2 w/ Distortion)
e|--------------------------------------------|
B|--------------------------------------------|
G|-------666--------666--------666------------|
D|-6666--666--6666--666--4444--666--66666666--|
A|-6666--444--6666--444--4444--444--66666666--|
E|-4444-------4444-------2222-------44444444--|

e|--------------------------------------------|
B|--------------------------------------------|
G|-------666--------666--------666------------|
D|-6666--666--6666--666--4444--666--66666666--|
A|-6666--444--6666--444--4444--444--66666666--|
E|-4444-------4444-------2222-------44444444--|

e|--------------------------------------------|
B|--------------------------------------------|
G|-------666--------666--------666------------|
D|-6666--666--6666--666--4444--666--66666666--|
A|-6666--444--6666--444--4444--444--66666666--|
E|-4444-------4444-------2222-------44444444--|

e|--------------------------------------------|
B|--------------------------------------------|
G|-------666--------666--------666------------|
D|-6666--666--6666--666--4444--666--66666666--|
A|-6666--444--6666--444--4444--444--66666666--|
E|-4444-------4444-------2222-------44444444--|

Instrumental: (Guitar 1 & 2 w/ Distortion)
e|----------------------------------------------------------|
B|----------------------------------------------------------|
G|------666666-------666666-------666666-------666666-------|
D|-4-6--666666--7-6--666666--7-6--666666--7-6--666666--7-6--|
A|-4-6--444444--7-6--444444--7-6--444444--7-6--444444--7-6--|
E|-2-4----------5-4----------5-4----------5-4----------5-4--|

Verse: (Guitar 1 & 2 w/ Distortion)
e|---------------------|
B|---------------------|
G|---(bass)------------|
D|--------------7-6----|
A|-4-4-4-4-4-4--7-6----|
E|--------------5-4----|

e|---------------------|
B|---------------------|
G|---(bass)------------|
D|--------------7-6----|
A|-4-4-4-4-4-4--7-6----|
E|--------------5-4----|

e|---------------------|
B|---------------------|
G|---(bass)------------|
D|--------------7-6----|
A|-4-4-4-4-4-4--7-6----|
E|--------------5-4----|

e|---------------------|
B|---------------------|
G|---(bass)------------|
D|--------------7-6----|
A|-4-4-4-4-4-4--7-6----|
E|--------------5-4----|

e|---------------------|
B|---------------------|
G|---(bass)------------|
D|--------------7-6----|
A|-4-4-4-4-4-4--7-6----|
E|--------------5-4----|

e|---------------------|
B|---------------------|
G|---(bass)------------|
D|--------------7-6----|
A|-4-4-4-4-4-4--7-6----|
E|--------------5-4----|

e|---------------------|
B|---------------------|
G|---(bass)------------|
D|--------------7-6----|
A|-4-4-4-4-4-4--7-6----|
E|--------------5-4----|

e|---------------------|
B|---------------------|
G|---(bass)------------|
D|--------------7-6----|
A|-4-4-4-4-4-4--7-6----|
E|--------------5-4----|

Chorus: (Guitar 1 & 2 w/ Distortion)
e|----------------|
B|----------------|
G|-----------6----|
D|-4444--66--6-6--|
A|-4444--66--4-6--|
E|-2222--44----4--|

e|----------------|
B|----------------|
G|-----------6----|
D|-4444--66--6-6--|
A|-4444--66--4-6--|
E|-2222--44----4--|

e|----------------|
B|----------------|
G|-----------6----|
D|-4444--66--6-6--|
A|-4444--66--4-6--|
E|-2222--44----4--|

e|-----------|
B|-----------|
G|-----------|
D|-4444--66--|
A|-4444--66--|
E|-2222--44--|

e|--------------|
B|--------------|
G|------666666--|
D|-4-6--666666--|
A|-4-6--444444--|
E|-2-4----------|

e|--------------|
B|--------------|
G|------666666--|
D|-4-6--666666--|
A|-4-6--444444--|
E|-2-4----------|

e|--------------|
B|--------------|
G|------666666--|
D|-4-6--666666--|
A|-4-6--444444--|
E|-2-4----------|

e|--------------|
B|--------------|
G|------666666--|
D|-4-6--666666--|
A|-4-6--444444--|
E|-2-4----------|

Outro: (Guitar 1 & 2 w/ Distortion)
e|------------------------------|
B|------------------------------|
G|------6-6-6-66----------------|
D|-4-6--6-6-6-66-6--------------|
A|-4-6--4-4-4-44-6--------------|
E|-2-4-----------4--(Let-ring)--|

Lyrics:
(Verse)
I don't care if you don't
I don't care if you don't
I don't care if you don't care

I don't care if you don't
I don't care if you don't
I don't care if you don't care

I don't care if you don't
I don't care if you don't
I don't care if you don't care

I don't care if you don't
I don't care if you don't
I don't care if you don't care

I Don't Care!

(Verse)
Everyone is so full of shit
Born and raised by hypocrites
Hearts recycled but never saved
From the cradle to the grave
We are the kids of war and peace
From Anaheim to the Middle East
We are the stories and disciples
Of the Jesus of Suburbia

(Chorus)
Land of make believe
Heaven don't believe in me
Heaven make believe
Heaven don't believe

(Verse)
I Don't Care
I Don't Care
I Don't Care
I Don't Care
I Don't Care!

----------------------------------------------------------------------------------
IV. Dearly Beloved
----------------------------------------------------------------------------------
Bass Interlude:
e|-----------------------|
B|-----------------------|
G|-----------------------| (x6)
D|-----------------------|
A|-----------------------|
E|-4-4-4-4-4-4-4-4\3/4---|

Verse: (Guitar 2 w/ Distortion)
e|-----------------------------|
B|-----------------------------|
G|-------55----66----------88--|
D|-66----55----66----66----88--|
A|-66----33----44----66----66--|
E|-44----------------44--------|

Verse: (Guitar 2 w/ No Effects)
e|--------------------------------------------------------------------------------|
B|--------------------------------------------------------------------------------|
G|----------------------5---5---5---5------6---6---6---6-----------------8---8----|
D|---6---6---6---6----5-5-5-5-5-5-5-5-5--6-6-6-6-6-6-6-6-6----6---6----8-8-8-8-8--|
A|-6-6-6-6-6-6-6-6-6--3-3-3-3-3-3-3-3-3--4-4-4-4-4-4-4-4-4--6-6-6-6-6--6-6-6-6-6--|
E|-4-4-4-4-4-4-4-4-4----------------------------------------4-4-4-4-4-------------|

Instrumental: (Guitar 2 w/ No Effects)
e|--------------------------------------------------------------------------------|
B|--------------------------------------------------------------------------------|
G|----------------------5---5---5---5------6---6---6---6-----------------8---8----|
D|---6---6---6---6----5-5-5-5-5-5-5-5-5--6-6-6-6-6-6-6-6-6----6---6----8-8-8-8-8--|
A|-6-6-6-6-6-6-6-6-6--3-3-3-3-3-3-3-3-3--4-4-4-4-4-4-4-4-4--6-6-6-6-6--6-6-6-6-6--|
E|-4-4-4-4-4-4-4-4-4----------------------------------------4-4-4-4-4-------------|

Verse: (Guitar 2 w/ No Effects)
e|--------------------------------------------------------------------------------|
B|--------------------------------------------------------------------------------|
G|----------------------5---5---5---5------6---6---6---6-----------------8---8----|
D|---6---6---6---6----5-5-5-5-5-5-5-5-5--6-6-6-6-6-6-6-6-6----6---6----8-8-8-8-8--|
A|-6-6-6-6-6-6-6-6-6--3-3-3-3-3-3-3-3-3--4-4-4-4-4-4-4-4-4--6-6-6-6-6--6-6-6-6-6--|
E|-4-4-4-4-4-4-4-4-4----------------------------------------4-4-4-4-4-------------|

e|--------------------------------------------------------------------------------|
B|--------------------------------------------------------------------------------|
G|----------------------5---5---5---5------6---6---6---6-----------------8---8----|
D|---6---6---6---6----5-5-5-5-5-5-5-5-5--6-6-6-6-6-6-6-6-6----6---6----8-8-8-8-8--|
A|-6-6-6-6-6-6-6-6-6--3-3-3-3-3-3-3-3-3--4-4-4-4-4-4-4-4-4--6-6-6-6-6--6-6-6-6-6--|
E|-4-4-4-4-4-4-4-4-4----------------------------------------4-4-4-4-4-------------|

Instrumental: (Guitar 2 w/ No Effects)
e|--------------------------------------------------------------------------------|
B|--------------------------------------------------------------------------------|
G|----------------------5---5---5---5------6---6---6---6-----------------8---8----|
D|---6---6---6---6----5-5-5-5-5-5-5-5-5--6-6-6-6-6-6-6-6-6----6---6----8-8-8-8-8--|
A|-6-6-6-6-6-6-6-6-6--3-3-3-3-3-3-3-3-3--4-4-4-4-4-4-4-4-4--6-6-6-6-6--6-6-6-6-6--|
E|-4-4-4-4-4-4-4-4-4----------------------------------------4-4-4-4-4-------------|

Lyrics:
(Verse)
Dearly beloved
Are you listening
I can't remember a word
That you were saying

Are we demented
Or am I disturbed
The space that's in between
Insane and insecure

Brothers and sisters, get those hands in the air!

(Verse)
Oh therapy
Can you please fill the void
Am I retarded
Or am I just overjoyed

Nobody's perfect
And I stand accused
For lack of a better word
And that's my best excuse

England!

Ladies and Gentlemen, Mike Dirnt!

----------------------------------------------------------------------------------
 V. Tales of Another Broken Home
----------------------------------------------------------------------------------
Intro: (Guitar 1 & 2 w/ Distortion)
e|-------------------------------------------------------------------------------------|
B|-------------------------------------------------------------------------------------|
G|-------------------6--------------------6--------------------6--------------------6--|
D|-6----(bass)----4--6--6----(bass)----4--6--6----(bass)----4--6--6----(bass)----4--6--|
A|-6--------------4--4--6--------------4--4--6--------------4--4--6--------------4--4--|
E|-4--4-44-44-44--2-----4--4-44-44-44--2-----4--4-44-44-44--2-----4--4-44-44-44--2-----|

Verse: (Guitar 1 & 2 w/ Distortion)
e|-------------------------------|
B|-------------------------------|
G|--------------------------6----|
D|-6-6-6-6-6-6-6-6-6----4---6----|
A|-6-6-6-6-6-6-6-6-6----4---4----|
E|-4-4-4-4-4-4-4-4-4----2--------|

e|-------------------------------|
B|-------------------------------|
G|--------------------------6----|
D|-6-6-6-6-6-6-6-6-6----4---6----|
A|-6-6-6-6-6-6-6-6-6----4---4----|
E|-4-4-4-4-4-4-4-4-4----2--------|

e|-------------------------------|
B|-------------------------------|
G|--------------------------6----|
D|-6-6-6-6-6-6-6-6-6----4---6----|
A|-6-6-6-6-6-6-6-6-6----4---4----|
E|-4-4-4-4-4-4-4-4-4----2--------|

e|-------------------------------|
B|-------------------------------|
G|--------------------------6----|
D|-6-6-6-6-6-6-6-6-6----4---6----|
A|-6-6-6-6-6-6-6-6-6----4---4----|
E|-4-4-4-4-4-4-4-4-4----2--------|

e|-------------------------------|
B|-------------------------------|
G|--------------------------6----|
D|-6-6-6-6-6-6-6-6-6----4---6----|
A|-6-6-6-6-6-6-6-6-6----4---4----|
E|-4-4-4-4-4-4-4-4-4----2--------|

e|-------------------------------|
B|-------------------------------|
G|--------------------------6----|
D|-6-6-6-6-6-6-6-6-6----4---6----|
A|-6-6-6-6-6-6-6-6-6----4---4----|
E|-4-4-4-4-4-4-4-4-4----2--------|

e|-------------------------------|
B|-------------------------------|
G|--------------------------6----|
D|-6-6-6-6-6-6-6-6-6----4---6----|
A|-6-6-6-6-6-6-6-6-6----4---4----|
E|-4-4-4-4-4-4-4-4-4----2--------|

e|-------------------------------|
B|-------------------------------|
G|--------------------------6----|
D|-6-6-6-6-6-6-6-6-6----4---6----|
A|-6-6-6-6-6-6-6-6-6----4---4----|
E|-4-4-4-4-4-4-4-4-4----2--------|

Chorus: (Guitar 1 & 2 w/ Distortion)
e|-----------------------------------|
B|-----------------------------------|
G|-6-----6-----6----8-----8-----8----|
D|-6--6--6--6--66---8--6--8--6--86---|
A|-4--6--4--6--46---6--6--6--6--66---|
E|----4-----4---4------4-----4---4---|

e|-----------------------------------|
B|-----------------------------------|
G|-6-----6-----6----8-----8-----8----|
D|-6--6--6--6--66---8--6--8--6--86---|
A|-4--6--4--6--46---6--6--6--6--66---|
E|----4-----4---4------4-----4---4---|

Verse: (Guitar 1 & 2 w/ Distortion)
e|-------------------------------|
B|-------------------------------|
G|--------------------------6----|
D|-6-6-6-6-6-6-6-6-6----4---6----|
A|-6-6-6-6-6-6-6-6-6----4---4----|
E|-4-4-4-4-4-4-4-4-4----2--------|

e|-------------------------------|
B|-------------------------------|
G|--------------------------6----|
D|-6-6-6-6-6-6-6-6-6----4---6----|
A|-6-6-6-6-6-6-6-6-6----4---4----|
E|-4-4-4-4-4-4-4-4-4----2--------|

e|-------------------------------|
B|-------------------------------|
G|--------------------------6----|
D|-6-6-6-6-6-6-6-6-6----4---6----|
A|-6-6-6-6-6-6-6-6-6----4---4----|
E|-4-4-4-4-4-4-4-4-4----2--------|

e|-------------------------------|
B|-------------------------------|
G|--------------------------6----|
D|-6-6-6-6-6-6-6-6-6----4---6----|
A|-6-6-6-6-6-6-6-6-6----4---4----|
E|-4-4-4-4-4-4-4-4-4----2--------|

e|-------------------------------|
B|-------------------------------|
G|--------------------------6----|
D|-6-6-6-6-6-6-6-6-6----4---6----|
A|-6-6-6-6-6-6-6-6-6----4---4----|
E|-4-4-4-4-4-4-4-4-4----2--------|

e|-------------------------------|
B|-------------------------------|
G|--------------------------6----|
D|-6-6-6-6-6-6-6-6-6----4---6----|
A|-6-6-6-6-6-6-6-6-6----4---4----|
E|-4-4-4-4-4-4-4-4-4----2--------|

e|-------------------------------|
B|-------------------------------|
G|--------------------------6----|
D|-6-6-6-6-6-6-6-6-6----4---6----|
A|-6-6-6-6-6-6-6-6-6----4---4----|
E|-4-4-4-4-4-4-4-4-4----2--------|

e|-------------------------------|
B|-------------------------------|
G|--------------------------6----|
D|-6-6-6-6-6-6-6-6-6----4---6----|
A|-6-6-6-6-6-6-6-6-6----4---4----|
E|-4-4-4-4-4-4-4-4-4----2--------|

Chorus: (Guitar 1 & 2 w/ Distortion)
e|-----------------------------------|
B|-----------------------------------|
G|-6-----6-----6----8-----8-----8----|
D|-6--6--6--6--66---8--6--8--6--86---|
A|-4--6--4--6--46---6--6--6--6--66---|
E|----4-----4---4------4-----4---4---|

e|-----------------------------------|
B|-----------------------------------|
G|-6-----6-----6----8-----8-----8----|
D|-6--6--6--6--66---8--6--8--6--86---|
A|-4--6--4--6--46---6--6--6--6--66---|
E|----4-----4---4------4-----4---4---|

e|-----------------------------------|
B|-----------------------------------|
G|-6-----6-----6----8-----8-----8----|
D|-6--6--6--6--66---8--6--8--6--86---|
A|-4--6--4--6--46---6--6--6--6--66---|
E|----4-----4---4------4-----4---4---|

e|-----------------------------------|
B|-----------------------------------|
G|-6-----6-----6----8-----8-----8----|
D|-6--6--6--6--66---8--6--8--6--86---|
A|-4--6--4--6--46---6--6--6--6--66---|
E|----4-----4---4------4-----4---4---|

e|----------|
B|----------|
G|----6-----|
D|-4--6--6--|
A|-4--4--6--|
E|-2-----4--|

Instrumental: (Guitar 1 w/ Distortion)
e|------------------|
B|------------------|
G|----6----------6--|
D|-4--6--6----4--6--|
A|-4--4--6----4--4--|
E|-2-----4----2-----|

Guitar Solo: (Guitar 1 w/ Distortion (Rhythm Guitar))
e|-------------------------------|
B|-------------------------------|
G|--------------------------6----| (x8)
D|-6-6-6-6-6-6-6-6-6----4---6----|
A|-6-6-6-6-6-6-6-6-6----4---4----|
E|-4-4-4-4-4-4-4-4-4----2--------|

e|-----------------------------------|
B|-----------------------------------|
G|-6-----6-----6----8-----8-----8----|
D|-6--6--6--6--66---8--6--8--6--86---|
A|-4--6--4--6--46---6--6--6--6--66---|
E|----4-----4---4------4-----4---4---|

e|-----------------------------------|
B|-----------------------------------|
G|-6-----6-----6----8-----8-----8----|
D|-6--6--6--6--66---8--6--8--6--86---|
A|-4--6--4--6--46---6--6--6--6--66---|
E|----4-----4---4------4-----4---4---|

Guitar Solo: (Guitar 2 w/ Distortion (Lead Guitar))
e|----------------------------------------------|
B|----------------------------------------------|
G|-5/8----6-10-6-8----6\5----3-6-3-5------------| (x2)
D|-x-x----x-x--x-x----x-x----x-x-x-x------------|
A|-3/6----4-8--4-6----4\3----1-4-1-3------------|
E|----------------------------------------------|

e|-------------------------------------------------------------------|
B|-7p6---9p6---7p6---9p6---7p6------9p8---11p8---9p8---11p8---9p8----|
G|-----6-----6-----6-----6-----6--------8------8-----8------8-----8--| (x2)
D|-------------------------------------------------------------------|
A|-------------------------------------------------------------------|
E|-------------------------------------------------------------------|

Interlude: (Piano notes converted for Guitar 2 w/ No Effects)
e|-------------------------------------------------------|
B|-------------------------------------------------------|
G|-6--8-----6--6--8-----6--8-----6--6--8-----------------|
D|-6--8--6--6--6--8--6--6--8--6--6--6--8-----------------|
A|-4--6--6--4--4--6--6--4--6--6--4--4--6-----------------|
E|-------4-----------4--------4-----------(Let-It-Ring)--|

Ending: (Guitar 1 & 2 w/ Distortion)
e|-------------------------------|
B|-------------------------------|
G|--------------------------6----|
D|-6-6-6-6-6-6-6-6-6----4---6----|
A|-6-6-6-6-6-6-6-6-6----4---4----|
E|-4-4-4-4-4-4-4-4-4----2--------|

e|-------------------------------|
B|-------------------------------|
G|--------------------------6----|
D|-6-6-6-6-6-6-6-6-6----4---6----|
A|-6-6-6-6-6-6-6-6-6----4---4----|
E|-4-4-4-4-4-4-4-4-4----2--------|

e|-------------------------------|
B|-------------------------------|
G|--------------------------6----|
D|-6-6-6-6-6-6-6-6-6----4---6----|
A|-6-6-6-6-6-6-6-6-6----4---4----|
E|-4-4-4-4-4-4-4-4-4----2--------|

e|-------------------------------|
B|-------------------------------|
G|--------------------------6----|
D|-6-6-6-6-6-6-6-6-6----4---6----|
A|-6-6-6-6-6-6-6-6-6----4---4----|
E|-4-4-4-4-4-4-4-4-4----2--------|

[Instrumental from here on out.]

e|-------------------------------|
B|-------------------------------|
G|--------------------------6----|
D|-6-6-6-6-6-6-6-6-6----4---6----|
A|-6-6-6-6-6-6-6-6-6----4---4----|
E|-4-4-4-4-4-4-4-4-4----2--------|

e|-----------------------------------|
B|-----------------------------------|
G|--------------------------6--------|
D|-6-6-6-6-6-6-6-6-6----4---6---6----|
A|-6-6-6-6-6-6-6-6-6----4---4---6----|
E|-4-4-4-4-4-4-4-4-4----2-------4----|

Lyrics:
(Verse)
To live and not to breathe
Is to die in tragedy
To run, to run away
To find what you believe

Boom!

(Chorus)
And I
Leave behind
This hurricane of fucking lies

(Verse)
I lost my faith to list
This town that don't exist
So I run, I run away
The lights of masochists

Boom!

(Chorus)
And I
Leave behind
This hurricane of fucking lies
And I
Walked this line
A million and one fucking times
But not this time

Here we go!

(Interlude)
I don't feel any shame
I won't apologize
When there ain't nowhere we can go
Running away from pain
When we've been victimized
Tales from another broken...

Home!

(Ending)
We're leavin'
We're leavin'
We're leavin'
We're leavin home!

----------------------------------------------------------------------------------
Green Day
Holiday
----------------------------------------------------------------------------------
Guitar 1 - Billie Joe Armstrong (Standard Tuning)
Guitar 2 - Jason White          (Standard Tuning)

Intro: (Guitar 2 w/ Distortion)
e|-----------------------------|
B|-----------------------------|
G|-10-10---6-6----13-13----8-8-| (x2)
D|-10-10---6-6----13-13----8-8-|
A|-8--8----4-4----11-11----6-6-|
E|-----------------------------|

e|-----------------------------|
B|-----------------------------|
G|-10-10---6-6----13-13----8-8-| (x2)
D|-10-10---6-6----13-13----8-8-|
A|-8--8----4-4----11-11----6-6-|
E|-----------------------------|

Instrumental: (Guitar 1 & 2 w/ Distortion)
e|-----------------------------|
B|-----------------------------|
G|-10-10----6-6-----------8-8--|
D|-10-10----6-6----6-6----8-8--|
A|-8--8-----4-4----6-6----6-6--|
E|-----------------4-4---------|

e|---------------------------------|
B|---------------------------------|
G|-10-10----6-6-----------8-8-8-8--|
D|-10-10----6-6----6-6----8-8-8-8--|
A|-8--8-----4-4----6-6----6-6-6-6--|
E|-----------------4-4-------------|

Verse: (Guitar 2 w/ Distortion)
e|-----------------------------|
B|-----------------------------|
G|-10-10----6-6-----------8-8--|
D|-10-10----6-6----6-6----8-8--|
A|-8--8-----4-4----6-6----6-6--|
E|-----------------4-4---------|

e|---------------------------------|
B|---------------------------------|
G|-10-10----6-6-----------8-8-8-8--|
D|-10-10----6-6----6-6----8-8-8-8--|
A|-8--8-----4-4----6-6----6-6-6-6--|
E|-----------------4-4-------------|

e|-----------------------------------------------|
B|-----------------------------------------------|
G|-10-10----6-6-----------8-8---5-5-5-5-5-5-5-5--|
D|-10-10----6-6----6-6----8-8---5-5-5-5-5-5-5-5--|
A|-8--8-----4-4----6-6----6-6---3-3-3-3-3-3-3-3--|
E|-----------------4-4---------------------------|

e|-----------------------------|
B|-----------------------------|
G|-10-10----6-6-----------8-8--|
D|-10-10----6-6----6-6----8-8--|
A|-8--8-----4-4----6-6----6-6--|
E|-----------------4-4---------|

e|---------------------------------|
B|---------------------------------|
G|-10-10----6-6-----------8-8-8-8--|
D|-10-10----6-6----6-6----8-8-8-8--|
A|-8--8-----4-4----6-6----6-6-6-6--|
E|-----------------4-4-------------|

e|-----------------------------------------------|
B|-----------------------------------------------|
G|-10-10----6-6-----------8-8---5-5-5-5-5-5-5-5--|
D|-10-10----6-6----6-6----8-8---5-5-5-5-5-5-5-5--|
A|-8--8-----4-4----6-6----6-6---3-3-3-3-3-3-3-3--|
E|-----------------4-4---------------------------|

Chorus: (Guitar 1 & 2 w/ Distortion)
e|-----------------------------------------------------------------------------|
B|-----------------------------------------------------------------------------|
G|----------6-6-6-6-----------8-8-8-8-------------6-6-6-6-----------5-5-5-5-5--|
D|-3-3-3-3--6-6-6-6--6-6-6-6--8-8-8-8----3-3-3-3--6-6-6-6--6-6-6-6--5-5-5-5-5--|
A|-3-3-3-3--4-4-4-4--6-6-6-6--6-6-6-6----3-3-3-3--4-4-4-4--6-6-6-6--3-3-3-3-3--|
E|-1-1-1-1-----------4-4-4-4-------------1-1-1-1-----------4-4-4-4-------------|

Intro: (Guitar 2 w/ Distortion)
e|-----------------------------|
B|-----------------------------|
G|-10-10---6-6----13-13----8-8-| (x2)
D|-10-10---6-6----13-13----8-8-|
A|-8--8----4-4----11-11----6-6-|
E|-----------------------------|

Verse: (Guitar 2 w/ Distortion)
e|-----------------------------|
B|-----------------------------|
G|-10-10----6-6-----------8-8--|
D|-10-10----6-6----6-6----8-8--|
A|-8--8-----4-4----6-6----6-6--|
E|-----------------4-4---------|

e|---------------------------------|
B|---------------------------------|
G|-10-10----6-6-----------8-8-8-8--|
D|-10-10----6-6----6-6----8-8-8-8--|
A|-8--8-----4-4----6-6----6-6-6-6--|
E|-----------------4-4-------------|

e|-----------------------------------------------|
B|-----------------------------------------------|
G|-10-10----6-6-----------8-8---5-5-5-5-5-5-5-5--|
D|-10-10----6-6----6-6----8-8---5-5-5-5-5-5-5-5--|
A|-8--8-----4-4----6-6----6-6---3-3-3-3-3-3-3-3--|
E|-----------------4-4---------------------------|

e|-----------------------------|
B|-----------------------------|
G|-10-10----6-6-----------8-8--|
D|-10-10----6-6----6-6----8-8--|
A|-8--8-----4-4----6-6----6-6--|
E|-----------------4-4---------|

e|---------------------------------|
B|---------------------------------|
G|-10-10----6-6-----------8-8-8-8--|
D|-10-10----6-6----6-6----8-8-8-8--|
A|-8--8-----4-4----6-6----6-6-6-6--|
E|-----------------4-4-------------|

e|-----------------------------------------------|
B|-----------------------------------------------|
G|-10-10----6-6-----------8-8---5-5-5-5-5-5-5-5--|
D|-10-10----6-6----6-6----8-8---5-5-5-5-5-5-5-5--|
A|-8--8-----4-4----6-6----6-6---3-3-3-3-3-3-3-3--|
E|-----------------4-4---------------------------|

Chorus: (Guitar 1 & 2 w/ Distortion)
e|-----------------------------------------------------------------------------|
B|-----------------------------------------------------------------------------|
G|----------6-6-6-6-----------8-8-8-8-------------6-6-6-6-----------5-5-5-5-5--|
D|-3-3-3-3--6-6-6-6--6-6-6-6--8-8-8-8----3-3-3-3--6-6-6-6--6-6-6-6--5-5-5-5-5--|
A|-3-3-3-3--4-4-4-4--6-6-6-6--6-6-6-6----3-3-3-3--4-4-4-4--6-6-6-6--3-3-3-3-3--|
E|-1-1-1-1-----------4-4-4-4-------------1-1-1-1-----------4-4-4-4-------------|

Bridge: (Guitar 1 & 2 w/ Distortion)
e|-----------------------------------------------------|
B|-----------------------------------------------------|
G|---------------6--3--8---------------------6--5--10--| (x2)
D|-3-3----6-6----6--3--8--8----3-3----6-6----6--5--10--|
A|-3-3----6-6----4--1--6--8----3-3----6-6----4--3--8---|
E|-1-1----4-4-------------6----1-1----4-4--------------|

Guitar Solo: (Guitar 1 w/ Distortion (Rhythm Guitar))
e|--------------------------------------------------------------------------|
B|--------------------------------------------------------------------------|
G|-6-6-6-6-------------5-5-5-5---10-10-10-10---6-6-6-6-------------5-5-5-5--|
D|-6-6-6-6---6-6-6-6---5-5-5-5---10-10-10-10---6-6-6-6---6-6-6-6---5-5-5-5--|
A|-4-4-4-4---6-6-6-6---3-3-3-3---8--8--8--8----4-4-4-4---6-6-6-6---3-3-3-3--|
E|-----------4-4-4-4-------------------------------------4-4-4-4------------|

 (Guitar 2 w/ Distortion (Lead Guitar))
e|-------------------------------8---8---------------------|
B|-6-6-6-8-9----------8-5------6---6---6-6-6-8-9-----------|
G|-----------8-6-5-55-----5-55-------------------8-6-5-55--|
D|---------------------------------------------------------|
A|---------------------------------------------------------|
E|---------------------------------------------------------|

e|--------------------------------------------------------------|
B|-8-8--8--13-13--13--17-17-17-17-17-17-17-17-17-17-17-17--18v--|
G|--------------------------------------------------------------|
D|--------------------------------------------------------------|
A|--------------------------------------------------------------|
E|--------------------------------------------------------------|

Bridge: (Bass Guitar)
e|-------------------------------------------------------------------|
B|-------------------------------------------------------------------|
G|-------------------------------------------------------------------| (x10)
D|-------------------------------------------------------------------|
A|---------------4----1----6---------------------------4----3----8---|
E|-1-1----4-4-------------------6--------1-1----4-4------------------|

(Start Singing Now...)

e|-------------------------------------------------------------------|
B|-------------------------------------------------------------------|
G|-------------------------------------------------------------------|
D|-------------------------------------------------------------------|
A|---------------4----1----6---------------------------4----3----8---|
E|-1-1----4-4-------------------6--------1-1----4-4------------------|

e|-------------------------------------------------------------------|
B|-------------------------------------------------------------------|
G|-------------------------------------------------------------------|
D|-------------------------------------------------------------------|
A|---------------4----1----6---------------------------4----3----8---|
E|-1-1----4-4-------------------6--------1-1----4-4------------------|

e|-------------------------------------------------------------------|
B|-------------------------------------------------------------------|
G|-------------------------------------------------------------------|
D|-------------------------------------------------------------------|
A|---------------4----1----6---------------------------4----3----8---|
E|-1-1----4-4-------------------6--------1-1----4-4------------------|

e|-------------------------------------------------------------------|
B|-------------------------------------------------------------------|
G|-------------------------------------------------------------------|
D|-------------------------------------------------------------------|
A|---------------4----1----6---------------------------4----3----8---|
E|-1-1----4-4-------------------6--------1-1----4-4------------------|

e|----------------------------------------------------|
B|----------------------------------------------------|
G|----------------------------------------------------|
D|----------------------------------------------------|
A|---------------4----1----6--------------------------|
E|-1-1----4-4-------------------6--------1-1----4-4---|

(Guitar 1 & 2 w/ Distortion)
e|------------------------------------------------------------------|
B|------------------------------------------------------------------|
G|-6----5----10-----------------------------------------------------|
D|-6----5----10-------10-10-10-10-10-10-10-10-10-10-10-10-10-10-10--|
A|-4----3----8--------10-10-10-10-10-10-10-10-10-10-10-10-10-10-10--|
E|--------------------8--8--8--8--8--8--8--8--8--8--8--8--8--8--8---|

Chorus: (Guitar 1 & 2 w/ Distortion)
e|---------------------------------------------------------------------------|
B|---------------------------------------------------------------------------|
G|----------6-6-6-6-----------8-8-8-8-------------6-6-6-6-----------5-5-5-5--|
D|-3-3-3-3--6-6-6-6--6-6-6-6--8-8-8-8----3-3-3-3--6-6-6-6--6-6-6-6--5-5-5-5--|
A|-3-3-3-3--4-4-4-4--6-6-6-6--6-6-6-6----3-3-3-3--4-4-4-4--6-6-6-6--3-3-3-3--|
E|-1-1-1-1-----------4-4-4-4-------------1-1-1-1-----------4-4-4-4-----------|

Chorus: (Guitar 1 & 2 w/ Distortion)
e|--------------------------------------------------------------------------------------|
B|--------------------------------------------------------------------------------------|
G|----------6-6-6-6-----------8-8-8-8-------------6-6-6-6-----------5-5-5-5-5-5-5-5-5---|
D|-3-3-3-3--6-6-6-6--6-6-6-6--8-8-8-8----3-3-3-3--6-6-6-6--6-6-6-6--5-5-5-5-5-5-5-5-5---|
A|-3-3-3-3--4-4-4-4--6-6-6-6--6-6-6-6----3-3-3-3--4-4-4-4--6-6-6-6--3-3-3-3-3-3-3-3-3---|
E|-1-1-1-1-----------4-4-4-4-------------1-1-1-1-----------4-4-4-4----------------------|

Ending: (Guitar 2 w/ Distortion)
e|--------------------------------------------------------------------|
B|--------------------------------------------------------------------|
G|-10-10----6-6-----------8888--(x3)----10-10----6-6----8------10-----|
D|-10-10----6-6----6-6----8888----------10-10----6-6----8--10--10--3--|
A|-8--8-----4-4----6-6----6666----------8--8-----4-4----6--10--8---3--|
E|-----------------4-4-------------------------------------8-------1--|

Lyrics:
(Verse)
Here The Sound Of The Falling Rain
Coming Down Like An Armageddon Flame [Hey!]
The Shame
The Ones Who Died Without A Name

Here The Dogs Howling Out Of Key
To A Hymn Called Faith And Misery [Hey!]
And Bleed
The Company Lost The War Today

(Chorus)
I Beg To Dream And Differ From The Hollow Lies
This Is The Dawning Of The Rest Of Our Lives
On Holiday

(Verse)
Hear The Drum Pounding Out Of Time
Another Protestor Has Crossed The Line [Hey!]
To Find
The Money's On The Other Side

Can I Get Another Amen [Amen!]
There's A Flag Rapped Around A Score Of Men [Hey!]
A Gag
A Plastic Bag On A Monument

(Chorus)
I Beg To Dream And Differ From The Hollow Lies
This Is The Dawning Of The Rest Of Our Lives
On Holiday

Lights Out!
Ready?

(Bridge)
The Representative From The United Kingdom Now Has The Floor

Zeig Heil To The President Gasman
Bombs Away Is Your Punishment

Pulverize The Eiffel Towers
Who Criticize Your Government

Bang, Bang Goes The Broken Glass Man
Kill All The Fags That Don't Agree

Trials By Fire Setting Fire
Is Not The Way Meant For Me

Just Cause
Just Cause, Because We're Outlaws
Yeah!

(Ending)
I Beg To Dream And Differ From The Hollow Lies
This Is The Dawning Of The Rest Of Our Lives

I Beg To Dream And Differ From The Hollow Lies
This Is The Dawning Of The Rest Of Our Lives
This Is Our Lives On Holiday!

----------------------------------------------------------------------------------
Green Day
Are We The Waiting
----------------------------------------------------------------------------------
Guitar 2 - Jason White (Standard Tuning)

Verse: (Guitar 2 w/ Distortion)
E|-------------------------------------------------------|
B|-------2------------2------------7-------------7-------|
G|-----2---2--------2---2--------7---7---------7---7-----|
D|---2-------2----2-------2----7-------7-----7-------7---|
A|-0------------0------------5------------5--------------|
E|-------------------------------------------------------|

E|-------------------------------------------------------|
B|-------2------------2------------7-------------7-------|
G|-----2---2--------2---2--------7---7---------7---7-----|
D|---2-------2----2-------2----7-------7-----7-------7---|
A|-0------------0------------5------------5--------------|
E|-------------------------------------------------------|

E|-------------------------------------------------------|
B|-------2------------2------------7-------------7-------|
G|-----2---2--------2---2--------7---7---------7---7-----|
D|---2-------2----2-------2----7-------7-----7-------7---|
A|-0------------0------------5------------5--------------|
E|-------------------------------------------------------|

E|-------------------------------------------------------|
B|-------2------------2------------7-------------7-------|
G|-----2---2--------2---2--------7---7---------7---7-----|
D|---2-------2----2-------2----7-------7-----7-------7---|
A|-0------------0------------5------------5--------------|
E|-------------------------------------------------------|

Chorus: (Guitar 2 w/ Distortion)
E|-----------------------------------------------------------------|
B|---------12----------------9--------------7--------------7-------|
G|------11----11-----------9---9----------7---7----------7---7-----|
D|---11----------11------9-------9------7-------7------7-------7---|
A|-9-------------------7--------------5--------------5-------------|
E|-----------------------------------------------------------------|

E|-----------------------------------------------------------------|
B|---------12----------------9--------------7--------------7-------|
G|------11----11-----------9---9----------7---7----------7---7-----|
D|---11----------11------9-------9------7-------7------7-------7---|
A|-9-------------------7--------------5--------------5-------------|
E|-----------------------------------------------------------------|

Verse: (Guitar 2 w/ Distortion)
E|-------------------------------------------------------|
B|-------2------------2------------7-------------7-------|
G|-----2---2--------2---2--------7---7---------7---7-----|
D|---2-------2----2-------2----7-------7-----7-------7---|
A|-0------------0------------5------------5--------------|
E|-------------------------------------------------------|

E|-------------------------------------------------------|
B|-------2------------2------------7-------------7-------|
G|-----2---2--------2---2--------7---7---------7---7-----|
D|---2-------2----2-------2----7-------7-----7-------7---|
A|-0------------0------------5------------5--------------|
E|-------------------------------------------------------|

Verse: (Guitar 2 w/ Distortion)
E|------------------------------------------------------|
B|-------2------------2------------7------------7-------|
G|-----2---2--------2---2--------7---7--------7---7-----|
D|---2-------2----2-------2----7-------7----7-------7---|
A|-0------------0------------5------------5-------------|
E|------------------------------------------------------|

E|-------------------------------------------------------|
B|-------2------------2------------7-------------7-------|
G|-----2---2--------2---2--------7---7---------7---7-----|
D|---2-------2----2-------2----7-------7-----7-------7---|
A|-0------------0------------5------------5--------------|
E|-------------------------------------------------------|

E|-------------------------------------------------------|
B|-------2------------2------------7-------------7-------|
G|-----2---2--------2---2--------7---7---------7---7-----|
D|---2-------2----2-------2----7-------7-----7-------7---|
A|-0------------0------------5------------5--------------|
E|-------------------------------------------------------|

Chorus: (Guitar 2 w/ Distortion)
E|-----------------------------------------------------------------|
B|---------12----------------9--------------7--------------7-------|
G|------11----11-----------9---9----------7---7----------7---7-----|
D|---11----------11------9-------9------7-------7------7-------7---|
A|-9-------------------7--------------5--------------5-------------|
E|-----------------------------------------------------------------|

E|-----------------------------------------------------------------|
B|---------12----------------9--------------7--------------7-------|
G|------11----11-----------9---9----------7---7----------7---7-----|
D|---11----------11------9-------9------7-------7------7-------7---|
A|-9-------------------7--------------5--------------5-------------|
E|-----------------------------------------------------------------|

Verse: (Guitar 2 w/ Distortion)
E|-------------------------------------------------------|
B|-------2------------2------------7-------------7-------|
G|-----2---2--------2---2--------7---7---------7---7-----|
D|---2-------2----2-------2----7-------7-----7-------7---|
A|-0------------0------------5------------5--------------|
E|-------------------------------------------------------|

E|-------------------------------------------------------|
B|-------2------------2------------7-------------7-------|
G|-----2---2--------2---2--------7---7---------7---7-----|
D|---2-------2----2-------2----7-------7-----7-------7---|
A|-0------------0------------5------------5--------------|
E|-------------------------------------------------------|

E|-------------------------------------------------------|
B|-------2------------2------------7-------------7-------|
G|-----2---2--------2---2--------7---7---------7---7-----|
D|---2-------2----2-------2----7-------7-----7-------7---|
A|-0------------0------------5------------5--------------|
E|-------------------------------------------------------|

E|-------------------------------------------------------|
B|-------2------------2------------7-------------7-------|
G|-----2---2--------2---2--------7---7---------7---7-----|
D|---2-------2----2-------2----7-------7-----7-------7---|
A|-0------------0------------5------------5--------------|
E|-------------------------------------
Добавлено: 21.04.2012
Другие материалы по этой песне:
  • Аккорды и текст

Страница создана 21.04.2012
http://primanota.ru/green-day/bullet-in-a-bible-album-chords.htm
Привет, Гость.
Предлагаем пройти революционный курс по гитаре.
Подарок от PrimaNota.Ru, забирай!