PrimaNota.ru - самый крупный в мире бесплатный архив песенных текстов, аккордов, табулатур и нот


Green Day - Brain Stew Jaded - таба, видео

Регистрация Запомнить меня
Войти через:  Facebook Google Twitter Vk Yandex Mail.ru

Green Day - Brain Stew Jaded - таба, видео

Печатать
Просмотров: 223
artist: green day
song: brain stew/jaded
albums: insomniac and international superhits!
lyrics by: billie joe armstrong
music by: green day
produced by: rob cavallo and green day
copyright 1995 wb music corp/green daze music

i tabbed this myself, and im about 90% sure its
correct. however, i think its better and easier than
most tabs for this song. but, if u find mistakes,
e-mail me at misfit244@yahoo.com or im me at (aim)
LimpPark18241.
i dont know the tuning, so ill use standard. i never
find brain stew and jaded together, but thats the only
way its played on tv and radio! so, here they are...
together!

brain stew
riff 1 (palm mute)
e|---------------------------------------------------
b|---------------------------------------------------
g|---------------------------------------------------
d|--7-7----5-5----3-3----2-2--1-1--------------------
a|--7-7----5-5----3-3----2-2--1-1--------------------
E|--7-7----5-5----3-3----2-2--1-1--------------------
you just do this 12 times, then do this

riff 2
e|---------------------------------------------------
b|---------------------------------------------------
g|---------------------------------------------------
d|--7-7-xxxxxx-5-5-xxxxxx-3-3-xxxxxx-2-2-xx-1-1-xx---
a|--7-7-xxxxxx-5-5-xxxxxx-3-3-xxxxxx-2-2-xx-1-1-xx---
E|--7-7-xxxxxx-5-5-xxxxxx-3-3-xxxxxx-2-2-xx-1-1-xx---
do that 2 times, then
riff 1 x4
riff 2 x2
riff 1 x4
riff 1 (without palm mute) x6

and finally, without palm mute:
e|---------------------------------------------------
b|---------------------------------------------------
g|---------------------------------------------------
d|-7-7-----------------------------------------------
a|-7-7-----------------------------------------------
E|-7-7-----------------------------------------------

...right into jaded!
intro:
E|----------------------------------------------------
b|----------------------------------------------------
g|--6-6--6--------------------------------------------
d|--7-7--7--7-----5-5---7-7--7----------------7-------
a|--7-7--7--7-----5-5---5-5--7--7--7--7--5-5--5-------
e|--5-5-----5-----3-3--------5--5--5--5--3-3----0-----

E|----------------------------------------------------
b|----------------------------------------------------
g|----------------------------------------------------
d|--------------------7----------------------7--------
a|--7-7---7--7---5-5--5-----7-7---7-7---5-5--5--------
e|--5-5---5--5---3-3----0---5-5---5-5---3-3-----0-----

1st and 2nd Verses:
E|----------------------------------------------------
b|----------------------------------------------------
g|----------------------------------------------------
d|---------------------7----------------------7-------
a|--7-7---7--7---5-5--5-----7-7---7-7---5-5--5--------
e|--5-5---5--5---3-3----0---5-5---5-5---3-3-----0-----

last time do this
E|----------------|
b|----------------|
g|----------------|
d|----------------|
a|--7-7-7--7--7---|
e|--5-5-5--5--5---| 

Chorus:
E|-----------------------------------------------------
b|--77777777777777777----------------------------------
g|--77777777777777777----------------------------------
d|--77777777777777777----------------------------------
a|-55555555555555555-7-7-7-7-5-5-7--7-7--7-7--5-5--7---
e|-------------------5-5--5-5--3-3-5--5-5--5-5--3-3--5-

     
Добавлено: 12.11.2013
Другие материалы по этой песне:
  • Аккорды и текст

Страница создана 12.11.2013
http://primanota.ru/green-day/brain-stew-jaded-chords.htm
Привет, Гость.
Предлагаем пройти революционный курс по гитаре.
Подарок от PrimaNota.Ru, забирай!