PrimaNota.ru - самый крупный в мире бесплатный архив песенных текстов, аккордов, табулатур и нот


Green Day - 409 In Your Coffemaker - бас-таба, видео

Регистрация Запомнить меня
Войти через:  Facebook Google Twitter Vk Yandex Mail.ru

Green Day - 409 In Your Coffemaker - бас-таба, видео

Печатать
Просмотров: 276
Уроки эстрадного вокала в Санкт-Петербурге
Song: "409 in Your Coffemaker"
Artist: Green Day
Album: 1039 Smoothed Out Slappy Hours
Tuning: Standard (G-D-A-E)


Riff 1:

G:----------------|----------------|----------------|
D:----------------|----------------|----------------|
A:3-3-------------|3-3-------------|3-3-------------|
E:----3-2---3-3-3-|----3-2---3-3-3-|----3-2---3-3-3-|
  

G:----------------|
D:----------------|
A:3-3-------------|
E:----3-2---3-3-3-|


Verse:

G:----------------|----------------|
D:----------------|----------------| (8x)
A:----------------|----------------|
E:3---3---3-3---1----1-1---1-1-1---|


Chorus:

G:----------------|----------------|----------------|
D:----------------|----------------|----------------|
A:3---3-3---3-3---|----------------|3---3-3---3-3---|
E:----------------|3---3-3---3-3---|----------------|


G:----------------|----------------|----------------|
D:----------------|----------------|----------------|
A:----------------|3---3-3---3-3---|----------------|
E:3---3-3---3-3---|----------------|3---3-3---3-3---|


G:----------------|----------------|
D:----------------|----------------| (2x)
A:3-3-3-3-3-3-3/5-|5-5-5-5-5-5-5---|
E:----------------|----------------|


Fill:

G:------4-5---4---|------2-3---2---|------4-5---4---|
D:5-5---5-5---5---|3-3---3-3---3---|5-5---5-5---5---|
A:----------------|----------------|----------------|
E:----------------|----------------|----------------|

G:------2-3---2---|
D:3-3---3-3---3---|
A:----------------|
E:----------------|


Riff 2:

G:----------------|----------------|
D:----------------|----------------|
A:----------------|----------------| (8x)
E:3-3-------------|1-1-------------|


Riff 1 Alt.:

G:----------------|
D:----------------|
A:----------------|
E:3-3-3-3-3-3-3-3-|


Order:

Riff 1
Verse
Chorus
Riff 1
Verse 
Chorus
Riff 1
Fill
Riff 2
Riff 1 (2x; 2nd time, substitute last meas. with riff 1 Alt.)
Chorus
Riff 1
Riff 2

     
Добавлено: 31.08.2013
Другие материалы по этой песне:
  • Аккорды и текст

Страница создана 31.08.2013
http://primanota.ru/green-day/409-in-your-coffemaker-chords.htm
Привет, Гость.
Предлагаем пройти революционный курс по гитаре.
Подарок от PrimaNota.Ru, забирай!