PrimaNota.ru - самый крупный в мире бесплатный архив песенных текстов, аккордов, табулатур и нот


Green Carnation - 9-29-045 - аккорды и текст, видео

Регистрация Запомнить меня
Войти через:  Facebook Google Twitter Vk Yandex Mail.ru

Green Carnation - 9-29-045 - аккорды и текст, видео

Печатать
Просмотров: 77
9-29-045
Green Carnation
-----------------------------------------------------------------------------
                                          Artist - Green Carnation
                                         **************************
                                               Song - 9-29-045  
                                              *****************
                                     Album - The Acoustic Verses (2006) 
                                    ************************************
                                             Tabbed By - Ayreon77
                                            **********************
-----------------------------------------------------------------------------
Tuning = Standard



INTRO
******
e|-----------|-----------|-----------|-----------|
B|-----------|-----------|-----------|-----------|
G|------h----|-----------|------h----|-----------|
D|-----4-5---|------h----|-----4-5---|------p----|
A|---------7-|-----2-3---|---------7-|-----3-0---|Continue this
E|-0-0-------|-0-0-----3-|-0-0-------|-0-0-----1-|as the strumming guitar comes in.

Em C X4

---------------------------------

=============================
[Part one: My Greater Cause]
=============================

VERSE 1
********
     Em
As I ran down the street all the
                     D
Faces appeared to me one by one
       Em
By the fifth I took a sudden turn

The melting snow revealed the bodies
       D            G
Buried long ago
        Em
All the violence a man can take

Broken bones, and broken homes
  D
Beneath my feet

---------------------------------
CHORUS
*******
F#m      C#m
  On the dark side
      Bm           D
We'll meet again
F#m           C#m             Bm
  And cook it up for one more dance
D             G
  It's who we are

F    Em

---------------------------------
BRIDGE
*******
      Em                D     F
But I swear it'll be my last
Em         C         D      F
  And if I go, I go alone

Em C X2

---------------------------------
VERSE 2
********
       Em
In the eyes of elephant

Nothings too big and nothing
D
Proves you wrong
        Em
But the kind they had to offer

Didn't do me good
   D
It barely cracked the softer shell

---------------------------------
CHORUS
*******
F#m      C#m
  On the dark side
      Bm           D
We'll meet again
F#m           C#m             Bm
  And cook it up for one more dance
D             G
  It's who we are

F    Em

---------------------------------
BRIDGE
*******
      Em                D     F
But I swear it'll be my last
Em         C         D      F
  And if I go, I go alone
Em      C                     D     F
  Yes I failed and I can't go back
Em            C
I'm wasted beyond my years
      D                F   
And I breath to let it go

Em 

---------------------------------
03:41
ACOUSTIC SOLO
**************
  GUITAR 1 
  Em                                            Bm
e|---p---------p---------p---------s-----------|---p--------p--------p--------s-------h--p----|
B|-12-10-12--12-10-12--12-10-12--12\13-12-10-8-|-10-8-10--10-8-10--10-8-10--10\12-10-8-10-8-7-|
G|---------------------------------------------|----------------------------------------------|
D|---------------------------------------------|----------------------------------------------|
A|---------------------------------------------|----------------------------------------------|
E|---------------------------------------------|----------------------------------------------|
 |                                                                                            |
 |GUITAR 2                                                                                    |
e|---------------------------------------------|----------------------------------------------|
B|---------------------------------------------|----------------------------------------------|
G|--p--------p----------p---------s------------|--p--------p--------p---------s-------h-p-----|
D|-9-7--9---9-7---9----9-7---9---9\10--9--7--5-|-7-5--7---7-5--7---7-5--7----7\9--7--5-7-5-4--|
A|---------------------------------------------|----------------------------------------------|
E|---------------------------------------------|----------------------------------------------|


  GUITAR 1
  C                                     G
e|--p------p------p------s------h-p----|--p------p------p------s-----h-p-p--|
B|-8-7-8--8-7-8--8-7-8--8\10-8-7-8-7-5-|-3-1-3--3-1-3--3-1-3--3\5-3-1-3-1-0-|
G|-------------------------------------|------------------------------------|
D|-------------------------------------|------------------------------------|
A|-------------------------------------|------------------------------------|
E|-------------------------------------|------------------------------------|
 |
 |GUITAR 2
e|-------------------------------------|------------------------------------|
B|-------------------------------------|------------------------------------|
G|--p------p------p------s------h-p----|------------------------------------|Play All this
D|-5-4-5--5-4-5--5-4-5--5\7--5-4-5-4-2-|--p------p------p------s-----h-p----|Acoustic Solo
A|-------------------------------------|-5-3-5--5-3-5--5-3-5--5\7-5-3-5-3-2-|2 times.
E|-------------------------------------|------------------------------------|


---------------------------------
04:27
VIOLIN
*******
Am G F C G X2

F    Em

---------------------------------
BRIDGE
*******
      Em                D     F
Yes I swear it'll be my last
Em         C         D      F
  And if I go, I go alone
Em      C                     D     F
  But I failed and I can't go back
Em            C
I'm wasted beyond my years
      D                F   
And I breath to let it go

---------------------------------
05:31
SYNTH
******
Em C X4

---------------------------------
PICKING PART
*************
05:54
  Bm              Bm
e|---------------|---------------|
B|-----3---3-----|-----3---3-----|
G|---4---4---4---|---4---4---4---|
D|-4-----------4-|-4-----------4-|Continue this
A|---------------|---------------|With the vocals 
E|---------------|---------------|Below.

When the strumming comes in at 06:02
C  D  Em  Bm  C  G  Am  C  G  D

---------------------------------
06:28
VERSE 3
********
G          D             Em
All that I wanted was to slip away \
      Bm            C               \
For a little while                   \
        G           Am                X2 
Cause I felt alone                   / 
                              D     / 
And couldn't keep up with the world/

  D
e|--------------|---------------|
B|-----3---3----|-----3---3-----|
G|---0---0--0---|---0---0---0---|
D|-4----------4-|-4-----------4-|
A|--------------|---------------|Continue
E|--------------|---------------|And fade out.


***********************************************************
***********************************************************
07:42
ACOUSTIC GUITAR PICKING CAPO 3th FRET
**************************************
  CAPO 3th FRET   
  Em                                     C               ?                Am               D
e|--------------------------------|   e|----------------|----------------|----------------|------2-0-------| 
B|------0-3-----3-1-----1-0-------|   B|------1-----1---|------3-----3---|------1-----1---|----3-----3---3-|
G|----0-----0-------0-------0---0-|   G|----0---0-----0-|----0---0-----0-|----2---2-----2-|--2---------2---|
D|--2---------2-------2-------2---|   D|--2-------2-----|--0-------0-----|--2-------2-----|0---------------|
A|--------------------------------|   A|3---------------|2---------------|0---------------|----------------|
E|0-------------------------------|X6 E|----------------|----------------|----------------|----------------|X2

STRUM CHORDS
**************
Em       C ? Am C D
Em D C Am 
Em G Am C D
Em D C B Am D C D

Em       C ? Am D
Em       C D Am D
Em


***********************************************************
***********************************************************

========================
[Part Two: Home Coming]
========================

INSTRUMENTAL
10:56
  NO CAPO
  Bm                  G                   Bm        D         F#m  
e|-------2-|-------2-|-------3-|-------3-|-------2-|-------2-|-------------|-------------|
B|-----3---|-----3---|-----3---|-----3---|-----3---|-----3---|-----2-3-2---|-----2-3-2---|
G|---4-----|---4-----|---0-----|---0-----|---4-----|---2-----|-----------2-|-----------2-|
D|---------|---------|---------|---------|---------|-0-------|---4---------|---4---------|
A|-2-------|-2-------|-2-------|-2-------|-2-------|---------|-2-----------|-2-----------|
E|---------|---------|---------|---------|---------|---------|-------------|-------------|X2

=============================
[Part Three: House Of Cards]
=============================

Play this section with the words below.
  Bm                G                 Em                A
e|-------2-----2---|-------3-----3---|-------3-----3---|-------5------5---|
B|-----3---3-----3-|-----3---3-----3-|-----0---0-----0-|-----5---5------5-|
G|---4-------4-----|---0-------0-----|---0-------0-----|---6-------6------|
D|-----------------|-----------------|-2---------------|-7----------------|
A|-2---------------|-2---------------|-----------------|------------------|
E|-----------------|-----------------|-----------------|------------------|X4
         Bm
Where am I?
G             Em    A
  They're all gone
       Bm
All is black and white
  G                   Em  A
I think I have passed on
       Bm
All so warm
G         Em    A
   All so calm
          Bm               G
All these worries shutting down
            Em     A
Something's wrong
            Bm
Something's wrong

12:05
  Bm                  G                   Bm        D         F#m  
e|-------2-|-------2-|-------3-|-------3-|-------2-|-------2-|-------------|-------------|
B|-----3---|-----3---|-----3---|-----3---|-----3---|-----3---|-----2-3-2---|-----2-3-2---|
G|---4-----|---4-----|---0-----|---0-----|---4-----|---2-----|-----------2-|-----------2-|
D|---------|---------|---------|---------|---------|-0-------|---4---------|---4---------|
A|-2-------|-2-------|-2-------|-2-------|-2-------|---------|-2-----------|-2-----------|
E|---------|---------|---------|---------|---------|---------|-------------|-------------|X2

Is it really you?


12:22
Play this section with the words below.
  Bm                G                 Em                A
e|-------2-----2---|-------3-----3---|-------3-----3---|-------5------5---|
B|-----3---3-----3-|-----3---3-----3-|-----0---0-----0-|-----5---5------5-|
G|---4-------4-----|---0-------0-----|---0-------0-----|---6-------6------|
D|-----------------|-----------------|-2---------------|-7----------------|
A|-2---------------|-2---------------|-----------------|------------------|
E|-----------------|-----------------|-----------------|------------------|X4

         Bm
A moment of
G                 Em    A
  And they're all gone
           Bm
If I could close my eye
             F#m  Em   A
I'm sure I'd disappear


---------------------------------
12:39
G
Here they come
Em                     G
Pulling me up from the mud
                    Bm          A
I've failed yet I'm holding on
G
Here they come
    Em
I'm hiding in vain
   G
My shadow and I 
       Bm             A
In our house of cards


---------------------------------
13:07
Play this section with the words below.
  Bm                G                 Em                A
e|-------2-----2---|-------3-----3---|-------3-----3---|-------5------5---|
B|-----3---3-----3-|-----3---3-----3-|-----0---0-----0-|-----5---5------5-|
G|---4-------4-----|---0-------0-----|---0-------0-----|---6-------6------|
D|-----------------|-----------------|-2---------------|-7----------------|
A|-2---------------|-2---------------|-----------------|------------------|
E|-----------------|-----------------|-----------------|------------------|X4

G                      C#m
Never did I question myself for truth
                  Em      A
There never was a greater cause
Bm                  D
Never did I open my eyes for you
    G               Em      A
But there it was my greater cause


G
Here they come
Em                     G
Pulling me up from the mud
                    Bm          A
I've failed yet I'm holding on
G
Here they come
    Em
I'm hiding in vain
   G
My shadow and I 
       Bm             A
In our house of cards


G
Here they come
Em                     G
Pulling me up from the mud
                    Bm          A
I've failed yet I'm holding on
G
Here they come
    Em
I'm hiding in vain
   G
My shadow and I 
       Bm             A
In our house of cards


ENJOY............
Добавлено: 08.12.2015
Вам также может быть интересно:
Другие материалы по этой песне:
  • Аккорды и текст

Страница создана 10.01.2014
http://primanota.ru/green-carnation/9-29-045-chords.htm
Привет, Гость.
Предлагаем пройти революционный курс по гитаре.
Подарок от PrimaNota.Ru, забирай!