PrimaNota.ru - самый крупный в мире бесплатный архив песенных текстов, аккордов, табулатур и нот


Greeley Estates - Youll Never Leave Vegas Alive - текст песни, таба, видео

Регистрация Запомнить меня
Войти через:  Facebook Google Twitter Vk Yandex Mail.ru

Greeley Estates - Youll Never Leave Vegas Alive - текст песни, таба, видео

Печатать
Просмотров: 81
Уроки эстрадного вокала в Санкт-Петербурге
Kickass song =]
I'm hoping this is 98% accurate or more, it sounds almost exactly perfect.
Enjoy =]

RATE AND COMMENT!!

**UPDATED 3/15/10**
--fixed Guitar 2 harmony at BREAKDOWN PART 2.

Greeley Estates
"You'll Never Leave Vegas Alive"
No Rain, No Rainbow

INTRO---
Guitar 1:
|-----------------------------|
|-----------------------------|
|-----------------------------|
|------7------------------8-5-|
|----5---8-5------------5-----|
|-00---------00-00-00-0-------|
  ..         .. .. .. .

|-----------------------------|
|-----------------------------|
|-----------------------------|
|------7------------------8-5-|
|----5---8-5------------5-----|
|-00---------00-00-00-0-------|
  ..         .. .. .. .

|--------------------------------|
|--------------------------------|
|--------------------------------|
|------7-------------------------|
|----5---8-5---------------------|
|-00---------00-00-00-00-0000-00-|
  ..         .. .. .. .. .... ..

|---------------------------------|
|---------------------------------|
|---------------------------------|
|---------------------------------|
|-3-3-3-3-3-3-3-3-2-2-2-2-1-1-1-1-|
|-3-3-3-3-3-3-3-3-2-2-2-2-1-1-1-1-|
                  . . . . . . . .

Guitar 2:
|-------------------------------|
|-------------------------------|
|-------------------------------|
|------10-----------------------|
|----8----12-8------------8-6-5-|
|-00-----------00-00-00-0-------|
  ..           .. .. .. .

|-------------------------------|
|-------------------------------|
|-------------------------------|
|------10-----------------------|
|----8----12-8------------8-6-5-|
|-00-----------00-00-00-0-------|
  ..           .. .. .. .

|-------------------------------|
|-------------------------------|
|-------------------------------|
|------10-----------------------|
|----8----12-8------------------|
|-00-----------00-00-00-0000-00-|
  ..           .. .. .. .... ..

|---------------------------------|
|---------------------------------|
|---------------------------------|
|---------------------------------|
|-3-3-3-3-3-3-3-3-2-2-2-2-1-1-1-1-|
|-3-3-3-3-3-3-3-3-2-2-2-2-1-1-1-1-|
                  . . . . . . . .

VERSE 1---
(repeat INTRO)

CHORUS---
"They'll cut out your eyes..."
Guitar 1:
|-----------------------------------------------------------------|
|-----------------------------------------------------------------|
|-----------------------------------------------------------------|
|-----------------------------------------------------------------|
|---------------------------------4-4-4-4-4-4-4-4-3-3-3-----------|
|-0-0-0-0-0-0-0-0-1-1-1-1-1-1-1-1-----------------------3-3-3-3-3-|

|-----------------------------------------------------------------|
|-----------------------------------------------------------------|
|-----------------------------------------------------------------|
|-----------------------------------------------------------------|
|---------------------------------4-4-4-4-4-4-4-4-3-3-3-----------|
|-0-0-0-0-0-0-0-0-1-1-1-1-1-1-1-1-----------------------3-3-3-3-3-|

Guitar 2:
|-----------------------------------------------------------------|
|-----------------------------------------------------------------|
|-7-7-7-7-7-7-7-7-8-8-8-8-8-8-8-8-8-8-8-8-8-8-8-8-8-8-8-8-8-8-8-8-|
|-----------------------------------------------------------------|
|-----------------------------------------------------------------|
|-----------------------------------------------------------------|

|-----------------------------------------------------------------|
|-----------------------------------------------------------------|
|-7-7-7-7-7-7-7-7-8-8-8-8-8-8-8-8-8-8-8-8-8-8-8-8-8-8-8-8-8-8-8-8-|
|-----------------------------------------------------------------|
|-----------------------------------------------------------------|
|-----------------------------------------------------------------|


VERSE 2---
(repeat INTRO twice)

MINI BREAKDOWN---
"I'll only warn you once..."
Guitar 1:
[Guitar 2 plays some lead thing, I'll pick that up later... SORRY!!!]
|------------------------------------------------|
|------------------------------------------------|
|------------------------------------------------|
|------------------------------------------------|
|-00~---00-00-00~---0000-00~---00-00-00~---0000~-|
|-00~---00-00-00~---0000-00~---00-00-00~---0000~-|

|------------------------------------------------|
|------------------------------------------------|
|------------------------------------------------|
|------------------------------------------------|
|-00~---00-00-00~---0000-00~---00-00-00~---0000~-|
|-00~---00-00-00~---0000-00~---00-00-00~---0000~-|


CHORUS (repeat x4)---

KICKASS PART AT 1:23---
Both guitars:
|----------------------------------------|
|----------------------------------------|
|----------------------------------------|
|-0~~~--0~~~--0~~~--x-x-xx-x-xx-x-xx-x-x-|
|-0~~~--0~~~--0~~~--x-x-xx-x-xx-x-xx-x-x-|
|-0~~~--0~~~--0~~~--x-x-xx-x-xx-x-xx-x-x-|


BREAKDOWN Part 1---
Both guitars:
|---------------------------------------------------|
|---------------------------------------------------|
|---------------------------------------------------|
|---------------------------------------------------|
|-0-000-----000000---000-----000000-000----0-000000-|
|-0-000-----000000---000-----000000-000----0-000000-|
  . ...     ......   ...     ...... ...    . ......

|-------------------------------------------|
|-------------------------------------------|
|-------------------------------------------|
|-------------------------------------------|
|-00-00-0000-00-00-0000-00-00-0000-00-00-00-|
|-00-00-0000-00-00-0000-00-00-0000-00-00-00-|
  .. .. .... .. .. .... .. .. .... .. .. ..
^^ hit these hard

|-------------------------------------------------------|
|-------------------------------------------------------|
|-------------------------------------------------------|
|-------------------------------------------------------|
|-0~-000~-----000000~---000~-----000000-000----0-000000-|
|-0~-000~-----000000~---000~-----000000-000----0-000000-|
  .  ...      ......    ...      ...... ...    . ......

[slow down]
|-------------------------------------------|
|-------------------------------------------|
|-------------------------------------------|
|-------------------------------------------|
|-00-00-0000-00-00-0000-00-00-0000-00-00-00-|
|-00-00-0000-00-00-0000-00-00-0000-00-00-00-|
  .. .. .... .. .. .... .. .. .... .. .. ..
^^ hit these hard

BREAKDOWN PART 2---
Guitar 1:
|------------------------------|
|------------------------------|
|------------------------------|
|------------------------------|
|-0-------000------4-3-----2-0-|
|-0--0-1--000--0-1-----2-3-----|
  .       ...

|------------------------------------|
|------------------------------------|
|------------------------------------|
|------------------------------------|
|-0000000----4-3----000--5-----2-----|
|-0000000--1-----2--000----1-2---2-4-|
  .......           ...

|------------------------------|
|------------------------------|
|------------------------------|
|------------------------------|
|-0-------000------4-3-----2-0-|
|-0--0-1--000--0-1-----2-3-----|
  .       ...

|------------------------------------|
|------------------------------------|
|------------------------------------|
|------------------------------------|
|-0000000----4-3----000--5-----2-----|
|-0000000--1-----2--000----1-2---2-4-|
  .......           ...

|------------------------------|
|------------------------------|
|------------------------------|
|------------------------------|
|-0-------000------4-3-----2-0-|
|-0--0-1--000--0-1-----2-3-----|
  .       ...

|------------------------------------|
|------------------------------------|
|------------------------------------|
|------------------------------------|
|-0000000----4-3----000--5-----2-----|
|-0000000--1-----2--000----1-2---2-4-|
  .......           ...

|------------------------------|
|------------------------------|
|------------------------------|
|------------------------------|
|-0-------000------4-3-----2-0-|
|-0--0-1--000--0-1-----2-3-----|
  .       ...

|------------------------------------|
|------------------------------------|
|------------------------------------|
|------------------------------------|
|-0000000----4-3----000--5-----2-----|
|-0000000--1-----2--000----1-2---2-4-|
  .......           ...

Guitar 2:
(pay attention this one is different than Guitar 1)
|------------------------------|
|------------------------------|
|------------------------------|
|------------------------------|
|-0-------000------4-3-----2-0-|
|-0--0-1--000--0-1-----2-3-----|
  .       ...

|------------------------------------|
|------------------------------------|
|------------------------------------|
|------------------------------------|
|-0000000----4-3----000--5-----2-----|
|-0000000--1-----2--000----1-2---2-4-|
  .......           ...

|------------------------------|
|------------------------------|
|------------------------------|
|------------------------------|
|-0-------000------4-3-----2-0-|
|-0--0-1--000--0-1-----2-3-----|
  .       ...

|------------------------------------|
|------------------------------------|
|------------------------------------|
|------------------------------------|
|-0000000----4-3----000--5-----2-----|
|-0000000--1-----2--000----1-2---2-4-|
  .......           ...

|------------------------------|
|------------------------------|
|------------------------------|
|------------------------------|
|-0-------000------9-8-----7-5-|
|-0--2-4--000--2-4-----7-8-----|
  .       ...

|------------------------------------|
|------------------------------------|
|------------------------------------|
|------------------------------------|
|-0000000----9-8----000--8-----5-----|
|-0000000--6-----7--000----4-5---5-7-|
  .......           ...

|------------------------------|
|------------------------------|
|------------------------------|
|------------------------------|
|-0-------000------4-3-----2-0-|
|-0--0-1--000--0-1-----2-3-----|
  .       ...

|------------------------------------|
|------------------------------------|
|------------------------------------|
|------------------------------------|
|-0000000----9-8----000--8-----5-----|
|-0000000--6-----7--000----4-5---5-7-|
  .......           ...


OUTRO---
just repeat these chords in a variety of fashions
I'LL MAKE THIS MORE EXPLICIT AND DETAILED LATER.
Both guitars:
|-----------------------------------------------------------------|
|-----------------------------------------------------------------|
|-----------------------------------------------------------------|
|-0-0-0-0-0-0-0-0-0-0-0-0-0-0-0-0-3-3-3-3-3-3-3-3-3-3-3-3-3-3-3-3-|
|-0-0-0-0-0-0-0-0-0-0-0-0-0-0-0-0-3-3-3-3-3-3-3-3-3-3-3-3-3-3-3-3-|
|-0-0-0-0-0-0-0-0-0-0-0-0-0-0-0-0-3-3-3-3-3-3-3-3-3-3-3-3-3-3-3-3-|

|-----------------------------------------------------------------|
|-----------------------------------------------------------------|
|-----------------------------------------------------------------|
|-2-2-2-2-2-2-2-2-2-2-2-2-2-2-2-2-8-8-8-8-8-8-8-8-7-7-7-7-7-7-7-7-|
|-2-2-2-2-2-2-2-2-2-2-2-2-2-2-2-2-8-8-8-8-8-8-8-8-7-7-7-7-7-7-7-7-|
|-2-2-2-2-2-2-2-2-2-2-2-2-2-2-2-2-8-8-8-8-8-8-8-8-7-7-7-7-7-7-7-7-|


ENDING---
Both guitars:
|---------|
|---------|
|-0~~~~---|
|-0~~~~---|
|-0~~~~---|
Добавлено: 13.06.2012
Другие материалы по этой песне:
  • Аккорды и текст

Страница создана 13.06.2012
http://primanota.ru/greeley-estates/youll-never-leave-vegas-alive-chords.htm
Привет, Гость.
Предлагаем пройти революционный курс по гитаре.
Подарок от PrimaNota.Ru, забирай!