PrimaNota.ru - самый крупный в мире бесплатный архив песенных текстов, аккордов, табулатур и нот


Greeley Estates - Where Did You Go - текст песни, таба, видео

Регистрация Запомнить меня
Войти через:  Facebook Google Twitter Vk Yandex Mail.ru

Greeley Estates - Where Did You Go - текст песни, таба, видео

Печатать
Просмотров: 158
Greeley Estates: Where Did You Go
Album: Far From the Lies
Tuning: CGCFAD

Sorry i couldn't figure out the whole song...but here's the breakdown. It's kinda hard 
hear both guitar parts. If you have earphones, use the left one for guitar 2 and the 
one for guitar 1.

x = Mute
~ = Let it ring

      ______________________________________________________________
     |**On this part, guitar 1 and guitar 2 are echoing each other**|

Guitar 1 (2:15)
D|-----------------------------------------------------------------------|
A|-----------------------------------------------------------------------|
F|-----------------------------------------------------------------------|
C|--xxxx--------xxxx--------xxxx--------xxxx-----------------------------|
G|--xxxx--------xxxx--------xxxx--------xxxx-----------------------------|
C|--xxxx--------xxxx--------xxxx--------xxxx-----------------------------|

Guitar 2 (2:16)
D|-----------------------------------------------------------------------|
A|-----------------------------------------------------------------------|
F|--------7777--------7777--------7777--------7777-----------------------|
C|--------xxxx--------xxxx--------xxxx--------xxxx-----------------------|
G|--------5555--------5555--------5555--------5555-----------------------|
C|-----------------------------------------------------------------------|


                        |**The 10's are TEN**|

Guitar 1 (2:21)
D|-----------------------------------------------------------------------|
A|-----------------------------------------------------------------------|
F|--------7777--------10101010--------3333--------2222-------------------|
C|--xxxx--xxxx--xxxx--x-x-x-x---xxxx--xxxx--xxxx--xxxx-------------------|x3
G|--xxxx--5555--xxxx--8-8-8-8---xxxx--1111--xxxx--0000-------------------|
C|--xxxx--------xxxx------------xxxx--------xxxx-------------------------|

Guitar 2 (2:21)
D|-----------------------------------------------------------------------|
A|-----------------------------------------------------------------------|
F|--------7777--------7777--------7777--------6666-----------------------|
C|--xxxx--xxxx--xxxx--xxxx--xxxx--xxxx--xxxx--xxxx-----------------------|x3
G|--xxxx--5555--xxxx--5555--xxxx--5555--xxxx--4444-----------------------|
C|--xxxx--------xxxx--------xxxx--------xxxx-----------------------------|

Guitar 1 (2:40)
D|-----------------------------------------------------------------------|
A|-----------------------------------------------------------------------|
F|--------7777--------10101010-------3333--22222222----------------------|
C|--xxxx--xxxx--xxxx--x-x-x-x--xxxx--xxxx--xxxxxxxx--0~------------------|
G|--xxxx--5555--xxxx--8-8-8-8--xxxx--1111--00000000--0~------------------|
C|--xxxx--------xxxx-----------xxxx------------------0~------------------|

Guitar 2 (2:40)
D|-----------------------------------------------------------------------|
A|-----------------------------------------------------------------------|
F|--------7777--------7777--------7777--66666666-------------------------|
C|--xxxx--xxxx--xxxx--xxxx--xxxx--xxxx--xxxxxxxx--0~---------------------|
G|--xxxx--5555--xxxx--5555--xxxx--5555--44444444--0~---------------------|
C|--xxxx--------xxxx--------xxxx------------------0~---------------------|


Leave a comment and tell me what you think.
Добавлено: 13.06.2012
Другие материалы по этой песне:
  • Аккорды и текст

Страница создана 13.06.2012
http://primanota.ru/greeley-estates/where-did-you-go-chords.htm
Привет, Гость.
Предлагаем пройти революционный курс по гитаре.
Подарок от PrimaNota.Ru, забирай!