PrimaNota.ru - самый крупный в мире бесплатный архив песенных текстов, аккордов, табулатур и нот


Greeley Estates - What If - аккорды и текст, таба, видео

Регистрация Запомнить меня
Войти через:  Facebook Google Twitter Vk Yandex Mail.ru

Greeley Estates - What If - аккорды и текст, таба, видео

Печатать
Просмотров: 106
What If
Greeley Estates
Greeley Estates
What If
Outside Of this
2004
submitted by: paramore_fans@yahoo.com
I can't find any tabs for thsi song so I decided to create one that is accurate.

Tuning: Standard EADGBe

Chords used:
A     - x02220
A/C#  - x42220
D     - xx0232
E     - 022100
F#m   - 244222

Intro:
Guitar 1: A--A/C#--D--E-D

Guitar 2: continues until line "Would we take advantage of what we have"
E|-----------------------------------------------------------------|
B|-----------------------------------------------------------------|
G|-----------------------------------------------------------------|
D|---7-----6-----7---7-----6-----7---7-----6-----7---7-6-----7-6---|
A|-0---0-0---0-0---4---4-4---4-4---5---5-5---5-5---7-----7-5-----7-|
E|-----------------------------------------------------------------|

Verse 1:
A         A/C#        D
What if today was the last
     E         D   A   A/C#   D  E D
That chance we ever had    to say
A             A/C#                 D
Would we take advantage of what we have
E         D       A           D  E D
Before it was too late     to say


while singing too late to say at guitar 2
E|-----------------------------------------------------------------|
B|-----------------------------------------------------------------|
G|---6-----6-----6---4-----4-----4---------------------------------|
D|-----------------------------------7-----6-----7---7-----6-----7-|
A|-0---0-0---0-0---4---4-4---4-4---5---5-5---5-5---7---7-7---7-7---|
E|-----------------------------------------------------------------|

Refrain:
F#m                   A                   D
  All this means to us (all this means to us)
              E                       F#m---A--D--E
Everything we have (and everything we share)

Guitar 2: (Distortion starts)
E|----------------17---------------------|
B|-------------------17------------------|
G|-11(x5)--14(x5)-------18-7(x5)--9(x5)--|
D|--x(x5)---x(x5)----------x(x5)--x(x5)--| (x2)
A|--9(x5)--12(x5)----------5(x5)--7(x5)--|
E|---------------------------------------|


Chorus:
       A             E    F#m      A
If you walk out that door never to return
    D       E         A
How could I live with myself
   D       E         F#m             A
So many regrets that I would have to face
D                   E
Things I could have changed
    F#m               A
And ways I could have shown you
    D      E
How much I care

Guitar 2:
e|----------------------------------------------------------------------------9h10p9-|
B|--------------------10-10--9-10-12------------10-10-10/12-10-10-10/12-10-12--------|
G|-------9(x8)-11(x8)----------------7(x8)-------------------------------------------|
D|-7(x8)-9(x8)-11(x8)----------------7(x8)-2(x8)-------------------------------------|
A|-7(x8)-7(x8)--9(x8)----------------5(x8)-2(x8)-------------------------------------|
E|-5(x8)-----------------------------------0(x8)-------------------------------------|

e|--------------------------------------------------------------9-----10---9---|
B|--------------------10-10-10-9-10/12\10--------------------10---10-----9-----|
G|-7(x8)-9(x8)-11(x8)---------------------7(x8)-9(x8)-11(x8)---------9-------9-|
D|-7(x8)-9(x8)-11(x8)---------------------7(x8)-9(x8)-11(x8)-------------------|
A|-5(x8)-7(x8)--9(x8)---------------------5(x8)-7(x8)--9(x8)-------------------|
E|-----------------------------------------------------------------------------|

e|------------------------------------------------------|
B|--------------------10-10-10-9-10/12\10---------------|
G|-7(x8)-9(x8)-11(x8)---------------------7(x8)-9(x8)---|
D|-7(x8)-9(x8)-11(x8)---------------------7(x8)-9(x8)---|
A|-5(x8)-7(x8)--9(x8)---------------------5(x8)-7(x8)---|
E|------------------------------------------------------|


(Repeat Intro)

Verse 2:
A            A/C#           D
Why is it so hard for us to say
    E         D      A   A/C#
The things we feel inside
    D     E D
Our hearts
A             A/C#            D
Lets take the moments that we have
      E      D    A  A/C#
And remember everyday
   D  E D
To say


(Repeat Refrain and Chorus)

Interlude:

Guitar 1: A----F#m (x2)

Guitar 2: Palm muted
e|----------------------------------------|
B|----------------------------------------|
G|-6-6-6-6-6h7p6-6-6-6-6h7----2---2---2---|
D|-7----------------------4-4---4---4---4-| (x2)
A|-7----------------------4-4-------------|
E|-5----------------------2-2-------------|

Bridge:
        A
I don't want to waste our days
F#m
  Don't want to forget to say (I love you)
(repeat)

        A
I don't want to waste our days
F#m                      D  A    F#m  D
  Don't want to forget to   say(*Scream)

Scream:
   F#m  A  D  E
To say
(Repeat)


(Repeat Chorus)


Outro:
       A
If you walk out that door (Don't want to waste our days)
F#m        D
Never to return (Don't want to forget to say)
(Repeat)


Chorus 2: while 2nd vocalist screams
       A             E    F#m      A
If you walk out that door never to return
    D       E         A
How could I live with myself
   D       E         F#m             A
So many regrets that I would have to face
D    E       A
What we have today

Outro:

Guitar 1:D--A

Guitar 2: Ending Riff
e|-------------------------------------------------|
B|-------------------------------------2h3p2p0-----|
G|-7-6-6-6h7p6-6-6-4h6p4-4-4-2h4-2-2-2-----------2-|
D|---------------------------------------------2---|
A|-------------------------------------------------|
E|-------------------------------------------------|
Добавлено: 13.07.2012
Другие материалы по этой песне:
  • Аккорды и текст

Страница создана 26.02.2012
http://primanota.ru/greeley-estates/what-if-chords.htm
Привет, Гость.
Предлагаем пройти революционный курс по гитаре.
Подарок от PrimaNota.Ru, забирай!