PrimaNota.ru - самый крупный в мире бесплатный архив песенных текстов, аккордов, табулатур и нот


Greeley Estates - Too Much Csi - аккорды и текст, видео

Регистрация Запомнить меня
Войти через:  Facebook Google Twitter Vk Yandex Mail.ru

Greeley Estates - Too Much Csi - аккорды и текст, видео

Печатать
Просмотров: 108
Too Much Csi
Greeley Estates
Greeley Estates
Too Much CSI
Far From The Lies
2006
Submitted by: paramore_fans@yahoo.com

Tuning: Standard EADGBe 3 Guitars

Chords used:
Gm   - 355333
Eb   - xx1343 or x68886
Bb   - x13331 or 688766
Dm   - xx0232 or x57765
F    - 133211


Intro: Gm-Eb-Bb-Dm-Gm-Eb-Bb-F


Verse 1: This is a complex beat, not 4/4 nor 3/4 so better catch the timing. I think the 
is close to 15/4

Gm  Eb   Dm Eb Gm   Eb Dm 
Eb
    Best night   of my life
Gm      Eb        Dm     Eb     Gm    Eb  Dm Eb
    The blood and dirt remind me that I'm alive
Gm Eb Dm Eb Gm Eb    Dm   
   Eb
    I failed      to see this coming
Gm Eb    Dm Eb Gm     Eb    
     Eb    Gm
    When all      the signs pointed at you

Guitar 2: Palm muted
e|--------------------------|
B|--------------------------|
G|--------------------------|
D|--------------------------|
A|-------6-6-6-5-5-5-6-6-6--|
E|-3-3-3--------------------|

Guitar 3: Will enter at "I failed..."
e|-13-11-------13-11-------13-11-------13-11-------|
B|-------11----------11----------11----------11----|
G|----------10----------10----------10----------10-|
D|-------------------------------------------------|
A|-------------------------------------------------|
E|-------------------------------------------------|


Chorus 1: normal 4/4 beat
              Bb           Eb Gm
I should have known it was you
              F
I should have seen in your eyes


Verse 2: Complex beat too
Gm      Eb      Dm Eb  Gm    Eb    
Dm Eb
    Its twisted how      you set me up
Gm    Eb    Dm           Eb      Gm Eb     Dm  Eb
    I never thought that you were   who you are
Gm Eb  Dm Eb Gm Eb  Dm    
 Eb
    To think      I trusted in you
Gm Eb    Dm Eb Gm    Eb     
     Eb       Gm
    When this    was always part of your plan

Guitar 2: Palm muted
e|--------------------------|
B|--------------------------|
G|--------------------------|
D|--------------------------|
A|-------6-6-6-5-5-5-6-6-6--|
E|-3-3-3--------------------|

Guitar 3: Will enter at "To Think..."
e|-13-11-------13-11-------13-11-------13-11-------|
B|-------11----------11----------11----------11----|
G|----------10----------10----------10----------10-|
D|-------------------------------------------------|
A|-------------------------------------------------|
E|-------------------------------------------------|


Chorus 2: Normal 4/4 beat
              Bb           Eb Gm
I should have known it was you
              F                Gm
I should have seen in your eyes
Eb     Bb   Dm        Gm   Eb         
      F      Gm
Tie me up behind this truck so that I won't forget you
     Eb       Bb Dm             Gm  Eb
Keep dragging me  just like you are
           Bb           F
You know I won't forget your face


Verse 3: Complex beat also
Gm      Eb      Dm Eb Gm     Eb   
Eb
    I'm holding on       for my revenge
Gm        Eb   Dm    Eb        Gm   Eb  Dm Eb
    Cause if I die tonight then you get away
Gm Eb   Dm Eb Gm Eb   Dm  
   Eb
    The pain       is not the issue
Gm Eb    Dm  Eb Gm    Eb        
Eb    Gm
    Just think     of what I'll do to you

Guitar 2: Palm muted
e|--------------------------|
B|--------------------------|
G|--------------------------|
D|--------------------------|
A|-------6-6-6-5-5-5-6-6-6--|
E|-3-3-3--------------------|

Guitar 3: Will enter at "The Pain..."
e|-13-11-------13-11-------13-11-------13-11-------|
B|-------11----------11----------11----------11----|
G|----------10----------10----------10----------10-|
D|-------------------------------------------------|
A|-------------------------------------------------|
E|-------------------------------------------------|

(Repeat Chorus 2)


Bridge:
       Eb                                           Dm
Scream: Forget you face, your face. forget your face.
Gm
   I can taste my sweet revenge
Eb                               Dm
   You know that we'll meet again
       Eb                                    Dm
Scream: What's with Me, What's wrong with me?
Eb                               Dm
   You know that we'll meet again


Verse 4: Complex beat
Gm Eb Dm Eb Gm Eb    Dm   
   Eb
    I failed      to see this coming
Gm Eb    Dm Eb Gm     Eb    
     Eb
    When all      the signs pointed at

        Gm
Scream: You!!!!


Outro: Normal 4/4 beat
Eb     Bb   Dm        Gm   Eb         
      F      Gm
Tie me up behind this truck so that I won't forget you
     Eb       Bb Dm             Gm  Eb
Keep dragging me  just like you are
           Bb           F
You know I won't forget your face


Guitar 3: Outro Riff
e|-13-11-------13-11-------13-11-------13-11-------|
B|-------11----------11----------11----------11----|
G|----------10----------10----------10----------10-|
D|-------------------------------------------------|
A|-------------------------------------------------|
E|-------------------------------------------------|


Scream:
       Eb                                           Dm
Scream: Forget you face, your face. forget your face.
Добавлено: 01.06.2012
Другие материалы по этой песне:
  • Аккорды и текст

Страница создана 01.06.2012
http://primanota.ru/greeley-estates/too-much-csi-chords.htm
Привет, Гость.
Предлагаем пройти революционный курс по гитаре.
Подарок от PrimaNota.Ru, забирай!