PrimaNota.ru - самый крупный в мире бесплатный архив песенных текстов, аккордов, табулатур и нот


Greeley Estates - Through Waiting - текст песни, таба, бас-таба, видео

Регистрация Запомнить меня
Войти через:  Facebook Google Twitter Vk Yandex Mail.ru

Greeley Estates - Through Waiting - текст песни, таба, бас-таба, видео

Печатать
Просмотров: 199
through waiting

tabbed by: dallas smith - guitarist of greeley estates
great song by a great band

intro x 4
e ------------------      -0-0---0-0--|
b ------------------      -x-x---x-x--|
g -6---6---6--6--x--      -9-9---9-9--|
d -x---x---x--0--4--      -7-7---7-7--|
a -4->-5->-4--0--4-- x 4, -7-7---7-7--| repeat the whole thing once
d -0---0---0--0--4--      -7-7---7-7--|

verses (palm muted) do these x 2 for each verse
e -------------------------------------------------------------------------|
b -------------------------------------------------------------------------|
g -------------------------------------------------6-7-6-----------6-7-7---|
d -9-9-9-9-12-12-11-9--9-9-9-9-11-12-11----7-7-7-7-------7-7-7-7-7-7-7-7---|
a -9-9-9-9-------------9-9-9-9----------0--5-5-5-5---------5-5-5-5-------0-|
d -9-9-9-9-------------9-9-9-9----------0--5-5-5-5---------5-5-5-5-------0-|

e ------------------------------------------------------------------------|
b ------------------------------------------------------------------------|
g ---------------------------------------------------------2-2-2-2-2------|
d -9-9-9-9-12-12-11-9--9-9-9-9-11-12-11----7-7-7-7-7-5-----2-2-2-2-2------|
a -9-9-9-9-------------9-9-9-9----------0--5-5-5-5-5-5-0---4-4-4-4-4------|
d -9-9-9-9-------------9-9-9-9----------0--5-5-5-5-5-5-0------------------|

chorus (actually for this whole song listen to cd for strumming pattern)

e -0-----0------0----0----0-----0----------0----0----0---0----------------|
b -0-----x------x----x----x-----0----------x----x----x---0----------------|
g -7-----7---->-11->-12->-11----11-->-14->-12->-11->-12--9--------x-x-----|
d -5-----7---->-x-->-x-->-x-----9--->-x-->-x-->-x-->-x---7--------x-x-----|
a -5-----5---->-9-->-10->-9-----9--->-12->-10->-9-->-10--7--------x-x-----|
d -5-----0------0---------------9-----0----0----0----0---7--------x-x-----| (2nd chorus 
thingie is below)

e -------------------------------------|
b -------------------------------------|
g -------------------------------------|
d -------------------------------------|
a -7--5--4--5--4>5>4-------------------|
d -------------------5--4--0-----------| (solo thingie - 2nd chorus and end of bridge)


e -0-----0------0----0----0-----0----------0----0----0---0----------------|
b -0-----x------x----x----x-----0----------x----x----x---0----------------|
g -7-----7---->-11->-12->-11----11-->-14->-12->-11->-12--9----------------|
d -5-----7---->-x-->-x-->-x-----9--->-x-->-x-->-x-->-x---7----------------|
a -5-----5---->-9-->-10->-9-----9--->-12->-10->-9-->-10--7----------------|
d -5-----0------0---------------9-----0----0----0----0---7----------------|

bridge (h = harmonic - lightly touch the string above the metal fret, but don't press)
e ------------------------------------------------------------------------|
b ------------------------------------------------------------------------|
g ------------------------------------------------------------------------|
d --h12--------h7-h7-----h12--------h7-h7-----h12--------h7-h7------------|
a ------h12-h7-------h7------h12-h7-------h7------h12-h7-------h7---------|
d ------------------------------------------------------------------------|

e ------------------------------------------------------------------------|
b ------------------------------------------------------------------------|
g ------------------------------------------------------------------------|
d -7-7-7->-9-9-9->-11-11-11->-12->-14->-12->-11---------------------------|
a ------------------------------------------------------------------------|
d ------------------------------------------------------------------------|

repeat harmonics (second guitar starts the chorus palm muted underneath).

song structure is:

intro
verse
chorus (no solo thingie)
intro
verse
chorus
bridge
chorus
Добавлено: 05.06.2012
Другие материалы по этой песне:
  • Аккорды и текст

Страница создана 03.05.2012
http://primanota.ru/greeley-estates/through-waiting-chords.htm
Привет, Гость.
Предлагаем пройти революционный курс по гитаре.
Подарок от PrimaNota.Ru, забирай!