PrimaNota.ru - самый крупный в мире бесплатный архив песенных текстов, аккордов, табулатур и нот


Greeley Estates - They Wont Stay Dead - текст песни, таба, видео

Регистрация Запомнить меня
Войти через:  Facebook Google Twitter Vk Yandex Mail.ru

Greeley Estates - They Wont Stay Dead - текст песни, таба, видео

Печатать
Просмотров: 83
Fun, simple yet speedy tab. Pretty sexy intro... fast strumming. Yeah... good stuff.
=] RATE AND COMMENT!!!

**UPDATED 3/15/10**
--fixed Guitar 1 and 2 in the chorus.

Greeley Estates
"They Won't Stay Dead"
No Rain, No Rainbow

INTRO---
Both guitars:
(0:00-0:08)
|-------|
|-------|
|-2~~~~-|
|-0~~~~-|
|-0~~~~-|
|-0~~~~-|

(0:09)
(hammer on and pull off as you please)
|-----------------------------|
|-----------------------------|
|-----------------------------|
|-----------------------------|
|-----------------------------|
|-3-1-0-6-5-0-3-1-0-6-5-0-3-1-|

(0:11)
|---------------------------------|
|---------------------------------|
|---------------------------------|
|---------------------------------|
|---------------------------------|
|-3-1-0-6-5-0-3-1-0-6-5-0-3-1-3-1-|

(0:14)
|-----------------------------|
|-----------------------------|
|-----------------------------|
|-----------------------------|
|-----------------------------|
|-3-1-0-6-5-0-3-1-0-6-5-0-3-1-|

(0:16)
|---------------------------------|
|---------------------------------|
|---------------------------------|
|---------------------------------|
|---------------------------------|
|-3-1-0-6-5-0-3-1-0-6-5-0-3-1-3-1-|


VERSE---
Both guitars:
[yes, the stretch from the 1st to the 5th fret on the B to the F# string might be a 
but you can do it =]]
(0:18)
"Barbara, they're coming for you..."
|-----------------------------------------|
|-----------------------------------------|
|-----------------------------------------|
|-----------------------------------------|
|-000000000000-0~-0000-0~-0000-0~---------|
|-000000000000-0~-0000-0~-0000-0~-0-6-0-1-|
  ............ .  .... .  .... .

(0:21)
"Run before they arrive..."
|-----------------------------------------|
|-----------------------------------------|
|-----------------------------------------|
|-----------------------------------------|
|-000000000000-0~-0000-0~-0000-0~---6---5-|
|-000000000000-0~-0000-0~-0000-0~-3---1---|
  ............ .  .... .  .... .

(0:23)
"Sounds insane..."
|-----------------------------------------|
|-----------------------------------------|
|-----------------------------------------|
|-----------------------------------------|
|-000000000000-0~-0000-0~-0000-0~---------|
|-000000000000-0~-0000-0~-0000-0~-0-6-0-1-|
  ............ .  .... .  .... .

(0:26)
"the unburied dead coming back to life..."
|-----------------------------------------|
|-----------------------------------------|
|-----------------------------------------|
|-----------------------------------------|
|-000000000000-0~-0000-0~-0000-0~---6---5-|
|-000000000000-0~-0000-0~-0000-0~-3---1---|
  ............ .  .... .  .... .

(0:28)
"Oh..."
|-------------------------------------------------|
|-------------------------------------------------|
|-------------------------------------------------|
|-------------------------------------------------|
|-00000000000000000000-0~-0000-0~-0000-0~---------|
|-00000000000000000000-0~-0000-0~-0000-0~-0-6-0-1-|
  .................... .  .... .  .... .

(0:31)
"Better board up this place..."
|-----------------------------------------|
|-----------------------------------------|
|-----------------------------------------|
|-----------------------------------------|
|-000000000000-0~-0000-0~-0000-0~---6---5-|
|-000000000000-0~-0000-0~-0000-0~-3---1---|
  ............ .  .... .  .... .

(0:33)
"Oh..."
|-----------------------------------------|
|-----------------------------------------|
|-----------------------------------------|
|-----------------------------------------|
|-000000000000-0~-0000-0~-0000-0~---------|
|-000000000000-0~-0000-0~-0000-0~-0-6-0-1-|
  ............ .  .... .  .... .

(0:35)
"We'll see if we survive this thing..."
|-----------------------------------------|
|-----------------------------------------|
|-----------------------------------------|
|-----------------------------------------|
|-000000000000-0~-0000-0~-0000-0~---6---5-|
|-000000000000-0~-0000-0~-0000-0~-3---1---|
  ............ .  .... .  .... .


CHORUS---
Both guitars:
(0:39)
"They won't stay dead..."
|------------------------------|
|------------------------------|
|------------------------------|
|-8--7-------------------------|
|-6--5--8--7--3--3-3-3-3-3-3-3-|
|-------8--7--3--3-3-3-3-3-3-3-|

(0:41)
"You've gotta kill their brains..."
|------------------------------|
|------------------------------|
|------------------------------|
|-8--7-------------------------|
|-6--5--7--8--0--0-0-0-0-0-0-0-|
|-------7--8--0--0-0-0-0-0-0-0-|

(0:44)
"Watch out they're..."
|------------------------------|
|------------------------------|
|------------------------------|
|-8--7-------------------------|
|-6--5--8--7--3--3-3-3-3-3-3-3-|
|-------8--7--3--3-3-3-3-3-3-3-|

(0:46)
"on their way..."
|------------------------------|
|------------------------------|
|------------------------------|
|-8--7-------------------------|
|-6--5--7--8--0--0-0-0-0-0-0-0-|
|-------7--8--0--0-0-0-0-0-0-0-|

(0:48)
"Lock the doors..."
|------------------------------|
|------------------------------|
|------------------------------|
|-8--7-------------------------|
|-6--5--8--7--3--3-3-3-3-3-3-3-|
|-------8--7--3--3-3-3-3-3-3-3-|

(0:51)
"and turn the lights down..."
|------------------------------|
|------------------------------|
|------------------------------|
|-8--7-------------------------|
|-6--5--7--8--0--0-0-0-0-0-0-0-|
|-------7--8--0--0-0-0-0-0-0-0-|

(0:53)
"Grab your gun..."
|------------------------------|
|------------------------------|
|------------------------------|
|-8--7-------------------------|
|-6--5--8--7--3--3-3-3-3-3-3-3-|
|-------8--7--3--3-3-3-3-3-3-3-|

(0:56)
"and turn the lights..."
|------------------------------|
|------------------------------|
|------------------------------|
|-8--7-------------------------|
|-6--5--7--8--0--0-0-0-0-0-0-0-|
|-------7--8--0--0-0-0-0-0-0-0-|


VERSE 2---
[repeat VERSE 1]
(0:58-1:18)
"All hell is breaking loose,
Murder is everywhere,
This could be the end of it all for you and me.
I can hear them everywhere,
I've got my shotgun loaded here..."

CHORUS---
[repeat CHORUS]
(1:19-1:38)
"They won't stay dead,
You've got to kill their brains.
Watch out, they're on their way.
Lock the doors, and turn the lights down.
Grab your gun, and turn the lights low..."


POSTCHORUS---
(1:38-1:47)
|-------|
|-------|
|-2~~~~-|
|-0~~~~-|
|-0~~~~-|
|-0~~~~-|

(1:48)
"Barbara, Barbara, it's time..."
|-----------------------------|
|-----------------------------|
|-----------------------------|
|-----------------------------|
|-----------------------------|
|-3-1-0-6-5-0-3-1-0-6-5-0-3-1-|

(1:50)
"to focus here..."
|---------------------------------|
|---------------------------------|
|---------------------------------|
|---------------------------------|
|---------------------------------|
|-3-1-0-6-5-0-3-1-0-6-5-0-3-1-3-1-|

(1:52)
"Barbara, Barbara, face it..."
|-----------------------------|
|-----------------------------|
|-----------------------------|
|-----------------------------|
|-----------------------------|
|-3-1-0-6-5-0-3-1-0-6-5-0-3-1-|

(1:54)
"your brother's dead..."
|---------------------------------|
|---------------------------------|
|---------------------------------|
|---------------------------------|
|---------------------------------|
|-3-1-0-6-5-0-3-1-0-6-5-0-3-1-3-1-|

(1:57)
"dead..."
|-----------------------------|
|-----------------------------|
|-----------------------------|
|-----------------------------|
|-----------------------------|
|-3-1-0-6-5-0-3-1-0-6-5-0-3-1-|

(1:59)
"dead..."
|---------------------------------|
|---------------------------------|
|---------------------------------|
|---------------------------------|
|---------------------------------|
|-3-1-0-6-5-0-3-1-0-6-5-0-3-1-3-1-|

(2:01)
|-----------------------------|
|-----------------------------|
|-----------------------------|
|-----------------------------|
|-----------------------------|
|-3-1-0-6-5-0-3-1-0-6-5-0-3-1-|

(2:03)
"dead..."
|---------------------------------|
|---------------------------------|
|---------------------------------|
|---------------------------------|
|---------------------------------|
|-3-1-0-6-5-0-3-1-0-6-5-0-3-1-3-1-|


BREAKDOWN---
(2:06)
"We need some help..."
|-----------------------------------|
|-----------------------------------|
|-----------------------------------|
|-----------------------------------|
|-0-0-0-0~--0-0-0-0~--000000-0-0-0~-|
|-1-1-1-1~--1-1-1-1~--111111-1-1-1~-|
  . . . .   . . . .   ...... . . .

(2:09)
"We need some..."
|-------------------------|
|-------------------------|
|-------------------------|
|-------------------------|
|-0-0-0-0~--00000000-0-0~-|
|-1-1-1-1~--11111111-1-1~-|
  . . . .   ........ . .

(2:11)
"help, they won't stay..."
|-----------------------------------|
|-----------------------------------|
|-----------------------------------|
|-----------------------------------|
|-0-0-0-0~--0-0-0-0~--000000-0-0-0~-|
|-1-1-1-1~--1-1-1-1~--111111-1-1-1~-|
  . . . .   . . . .   ...... . . .

(2:13)
"dead, we need..."
|-------------------------|
|-------------------------|
|-------------------------|
|-------------------------|
|-0-0-0-0~--000000000000~-|
|-1-1-1-1~--111111111111~-|
  . . . .   ............

(2:15)
"help, they're eating human..."
|-----------------------------------|
|-----------------------------------|
|-----------------------------------|
|-----------------------------------|
|-0-0-0-0~--0-0-0-0~--000000-0-0-0~-|
|-0-0-0-0~--0-0-0-0~--000000-0-0-0~-|
  . . . .   . . . .   ...... . . .

(2:17)
"flesh, I don't want to, want to..."
|-------------------------|
|-------------------------|
|-------------------------|
|-------------------------|
|-0-0-0-0~--00000000-0-0~-|
|-0-0-0-0~--00000000-0-0~-|
  . . . .   ........ . .

(2:20)
"die, we need some..."
|-----------------------------------|
|-----------------------------------|
|-----------------------------------|
|-----------------------------------|
|-0-0-0-0~--0-0-0-0~--000000-0-0-0~-|
|-0-0-0-0~--0-0-0-0~--000000-0-0-0~-|
  . . . .   . . . .   ...... . . .

(2:22)
"help..."
|-----------------------|
|-----------------------|
|-----------------------|
|--------------------0~-|
|-0-0-0-0~--00000000-0~-|
|-0-0-0-0~--00000000-0~-|
  . . . .   ........ .

(2:25-2:26)
some weird effect... you can play this by strumming a chord on the 7th frets of the B F#
strings and letting go and hitting it going with the pattern I guess...


REPEAT CHORUS---
(2:27-2:46)


OUTRO---
Both guitars:
(2:47)
"low..."
|-----------------------------------------|
|-----------------------------------------|
|-----------------------------------------|
|-----------------------------------------|
|-000000000000-0~-0000-0~-0000-0~-0-0-0-0-|
|-000000000000-0~-0000-0~-0000-0~-0-0-0-0-|
  ............ .  .... .  .... .  . . . .

(2:49)
"I turn the lights down..."
|-----------------------------------------|
|-----------------------------------------|
|-----------------------------------------|
|-----------------------------------------|
|-000000000000-0~-0000-0~-0000-0~-0-0-0-0-|
|-000000000000-0~-0000-0~-0000-0~-0-0-0-0-|
  ............ .  .... .  .... .  . . . .

(2:51)
"low..."
|-----------------------------------------|
|-----------------------------------------|
|-----------------------------------------|
|-----------------------------------------|
|-000000000000-0~-0000-0~-0000-0~-0-0-0-0-|
|-000000000000-0~-0000-0~-0000-0~-0-0-0-0-|
  ............ .  .... .  .... .  . . . .

(2:54)
"I turn the lights down..."
|-----------------------------------------|
|-----------------------------------------|
|-----------------------------------------|
|-----------------------------------------|
|-000000000000-0~-0000-0~-0000-0~-0-0-0-0-|
|-000000000000-0~-0000-0~-0000-0~-0-0-0-0-|
  ............ .  .... .  .... .  . . . .

(2:57)
"Now it feels so strange..."
|-----------------------------------------|
|-----------------------------------------|
|-----------------------------------------|
|-----------------------------------------|
|-000000000000-0~-0000-0~-0000-0~-0-0-0-0-|
|-000000000000-0~-0000-0~-0000-0~-0-0-0-0-|
  ............ .  .... .  .... .  . . . .

(2:59)
"Is this really, really happening..."
|-----------------------------------------|
|-----------------------------------------|
|-----------------------------------------|
|-----------------------------------------|
|-000000000000-0~-0000-0~-0000-0~-0-0-0-0-|
|-000000000000-0~-0000-0~-0000-0~-0-0-0-0-|
  ............ .  .... .  .... .  . . . .

(3:01)
"Go ahead..."
|-----------------------------------------|
|-----------------------------------------|
|-----------------------------------------|
|-----------------------------------------|
|-000000000000-0~-0000-0~-0000-0~-0-0-0-0-|
|-000000000000-0~-0000-0~-0000-0~-0-0-0-0-|
  ............ .  .... .  .... .  . . . .

(3:04) -- slow down...
"grab that gun and finish me..."
|-----------------------------------------|
|-----------------------------------------|
|-----------------------------------------|
|-----------------------------------------|
|-000000000000-0~-0000-0~-0000-0~-0-0-0-0-|
|-000000000000-0~-0000-0~-0000-0~-0-0-0-0-|
  ............ .  .... .  .... .  . . . .

(3:08-4:14)
some orchestra thing... sexy.

ENJOY!!!
Добавлено: 08.03.2012
Другие материалы по этой песне:
  • Аккорды и текст

Страница создана 08.03.2012
http://primanota.ru/greeley-estates/they-wont-stay-dead-chords.htm
Привет, Гость.
Предлагаем пройти революционный курс по гитаре.
Подарок от PrimaNota.Ru, забирай!