PrimaNota.ru - самый крупный в мире бесплатный архив песенных текстов, аккордов, табулатур и нот


Greeley Estates - The Offer - текст песни, таба, видео

Регистрация Запомнить меня
Войти через:  Facebook Google Twitter Vk Yandex Mail.ru

Greeley Estates - The Offer - текст песни, таба, видео

Печатать
Просмотров: 108
Уроки эстрадного вокала в Санкт-Петербурге
The last song I'm tabbing off of "No Rain, No Rainbow". The final... song... wow I 
be more proud of myself. This is the first album I've ever fully committed to tabbing within 
weeks... and it feels quite nice. Enjoy you bastards who have great taste in music =].

99% accurate.

Greeley Estates
"The Offer"
No Rain, No Rainbow

VERSE 1 Part 1---
Guitar 1:
(0:00)
"You, you lure me..."
|-------------------------------------------------|
|-------------------------------------------------|
|-------------------------------------------------|
|-------------------------------------------------|
|-------------------------------------------------|
|-0000-3-00000000-3-00-3-0000-2-00000000-2-0000-2-|
  ....   ........   ..   ....   ........   ....

(0:03)
"into your arms so I can't resist..."
|-------------------------------------------------|
|-------------------------------------------------|
|-------------------------------------------------|
|-------------------------------------------------|
|------5----------5----5------4----------4------4-|
|-0000---00000000---00---0000---00000000---0000---|
  ....   ........   ..   ....   ........   ....

(0:05)
"Get off of me, get off of me..."
|-------------------------------------------------|
|-------------------------------------------------|
|-------------------------------------------------|
|-------------------------------------------------|
|-------------------------------------------------|
|-0000-3-00000000-3-00-3-0000-2-00000000-2-0000-2-|
  ....   ........   ..   ....   ........   ....

(0:08)
"Get off of me, you better get off of me..."
|-------------------------------------------------|
|-------------------------------------------------|
|-------------------------------------------------|
|-------------------------------------------------|
|------5----------5----5------4----------4------4-|
|-0000---00000000---00---0000---00000000---0000---|
  ....   ........   ..   ....   ........   ....

Guitar 2:
(0:00)
|-------------------------------------------------|
|-------------------------------------------------|
|-------------------------------------------------|
|-------------------------------------------------|
|------5----------5----5------4----------4------4-|
|-0000---00000000---00---0000---00000000---0000---|
  ....   ........   ..   ....   ........   ....

(0:03)
|-------------------------------------------------|
|-------------------------------------------------|
|-------------------------------------------------|
|-------------------------------------------------|
|-------------------------------------------------|
|-0000-7-00000000-7-00-7-0000-6-00000000-6-0000-6-|
  ....   ........   ..   ....   ........   ....

(0:05)
|-------------------------------------------------|
|-------------------------------------------------|
|-------------------------------------------------|
|-------------------------------------------------|
|------5----------5----5------4----------4------4-|
|-0000---00000000---00---0000---00000000---0000---|
  ....   ........   ..   ....   ........   ....

(0:08)
|-------------------------------------------------|
|-------------------------------------------------|
|-------------------------------------------------|
|-------------------------------------------------|
|-------------------------------------------------|
|-0000-7-00000000-7-00-7-0000-6-00000000-6-0000-6-|
  ....   ........   ..   ....   ........   ....


VERSE 1 Part 2---
Both guitars:
(0:12)
"My life is flashing before my eyes..."
|------------------------------------------|
|------------------------------------------|
|------------------------------------------|
|------------------------------------------|
|-00000000~-0000~-000000000000~-0000~-0000-|
|-00000000~-0000~-000000000000~-0000~-0000-| <-- these last four always
  ........  ....  ............  ....  ....       lead in to the next part.

(0:15)
"and all that I'm missing because of a lie..."
|------------------------------------------|
|------------------------------------------|
|------------------------------------------|
|------------------------------------------|
|-00000000~-0000~-000000000000~-0000~-0000-|
|-00000000~-0000~-000000000000~-0000~-0000-|
  ........  ....  ............  ....  ....

(0:18)
"My life is flashing before my eyes, I..."
|------------------------------------------|
|------------------------------------------|
|------------------------------------------|
|------------------------------------------|
|-00000000~-0000~-000000000000~-0000~-0000-|
|-00000000~-0000~-000000000000~-0000~-0000-|
  ........  ....  ............  ....  ....

(0:21)
"won't let this happen, get off of me..."
|------------------------------------------|
|------------------------------------------|
|------------------------------------------|
|------------------------------------------|
|-00000000~-0000~-000000000000~-0000~-0000-|
|-00000000~-0000~-000000000000~-0000~-0000-|
  ........  ....  ............  ....  ....


CHORUS--- [PALM MUTE!!!!!!!!!!!!!!!!]
Guitar 1:
"This is why, why I don't sleep at night...
My body is aching, her beauty is poison..."
(0:24)
|----------------------------------------|
|----------------------------------------|
|----------------------------------------|
|----------------------------------------|
|---------------------3tp-------2tp------| <-- tp = tremolo pick
|-0tp--7tp--6tp--3tp-------2tp-------1tp-|

"I could have lost all that I have in this life...
Those beautiful eyes, those beautiful evil eyes..."
(0:36)
|----------------------------------------|
|----------------------------------------|
|----------------------------------------|
|----------------------------------------|
|---------------------3tp-------2tp------|
|-0tp--7tp--6tp--3tp-------2tp-------1tp-|

Guitar 2:
(0:24)
|----------------------------------------|
|----------------------------------------|
|----------------------------------------|
|----------------------------------------|
|------7tp--7tp--5tp------------6tp------|
|-7tp-----------------5tp--6tp-------5tp-|

(0:36)
|----------------------------------------|
|----------------------------------------|
|----------------------------------------|
|----------------------------------------|
|------7tp--7tp--5tp------------6tp------|
|-7tp-----------------5tp--6tp-------5tp-|


VERSE 2 Part 1---
[repeat VERSE 1 Part 1]
(0:48-0:59)
"I want you out of my life, and never come back...
Get out of here, get out of here...
Get out of here, stay away from me..."


VERSE 2 Part 2---
(1:00-1:11)
[repeat VERSE 1 Part 2]
"You wanna go back, but you can't...
You miss the way that it used to be...
You wish you could go back, but you can't...
This infidelity is now yours to bear..."


CHORUS---
(1:12-1:35)
[repeat CHORUS]
"This is why, why I don't sleep at night...
My body is aching, her beauty is poison...
I could have lost all that I had in this life...
Those beautiful eyes, those beautiful evil..."


PREBREAKDOWN---
(1:36-1:48)
"eyes..."
|-----------------------------------|
|-----------------------------------|
|-----------------------------------|
|-----------------------------------|
|-0~--7~--6~--3~--10~--2~--9~--1~~~-|
|-0~--7~--6~--3~--10~--2~--9~--1~~~-|


BREAKDOWN Section 1---
Both guitars:
"It's all a hoax, and I'm..."
(1:49)
|-------------------|
|-------------------|
|-------------------|
|-------------------|
|-00000---000000000-|
|-00000---000000000-|
  .....   .........

"sure it's straight from hell..."
(1:52)
|---------------------|
|---------------------|
|---------------------|
|---------------------|
|-000---0000000000000-|
|-000---0000000000000-|
  ...   .............

"Say no more, I'm..."
(1:55)
|------------------------------|
|------------------------------|
|------------------------------|
|------------------------------|
|-000000000---000000000---0000-|
|-000000000---000000000---0000-|
  .........   .........   ....

"through with your lies..."
(1:58)
|---------------------------|
|---------------------------|
|---------------------------|
|---------------------------|
|-00000---00000000000000000-|
|-00000---00000000000000000-|
  .....   .................


BREAKDOWN Section 2---
(2:01)
"It's all a hoax, and I'm..."
|------------------------------|
|------------------------------|
|------------------------------|
|------------------------------|
|-000000000---000000000---0000-|
|-000000000---000000000---0000-|
  .........   .........   ....

(2:04)
"sure it's straight from hell..."
|-------------------|
|-------------------|
|-------------------|
|-------------------|
|-00000000000000000-|
|-00000000000000000-|
  .................

(2:07)
"Say, say no more, I'm..."
|--------------------------|
|--------------------------|
|--------------------------|
|--------------------------|
|-00000---000000000---0000-|
|-00000---000000000---0000-|
  .....   .........   ....

(2:10)
"through with your lies..."
|-------------------|
|-------------------|
|-------------------|
|-------------------|
|-00000000000000000-|
|-00000000000000000-|
  .................

NOTE: Repeat Section 2 one more time =]
(2:13-2:25)


REPEAT CHORUS---
(2:25-2:49)
"This is why, why I don't sleep at night...
My body is aching, her beauty is poison...
I could have lost all that I had in this life...
Those beautiful eyes, those beautiful evil..."


OUTRO---
[repeat VERSE 1 Parts 1 and 2]
(2:49-3:16)
"eyes...
I know I'm playing with fire just thinking of you...
Get out of my head, get out of my head...
Get out of my head, you better get out of my head...
My life is flashing before my eyes...
Her poison was so close to taking it all...
My life is flashing before my eyes...
God, help me leave this...
God, help me leave this behind..."
Добавлено: 04.05.2012
Другие материалы по этой песне:
  • Аккорды и текст

Страница создана 04.05.2012
http://primanota.ru/greeley-estates/the-offer-chords.htm
Привет, Гость.
Предлагаем пройти революционный курс по гитаре.
Подарок от PrimaNota.Ru, забирай!