PrimaNota.ru - самый крупный в мире бесплатный архив песенных текстов, аккордов, табулатур и нот


Greeley Estates - Sheltered - текст песни, таба, видео

Регистрация Запомнить меня
Войти через:  Facebook Google Twitter Vk Yandex Mail.ru

Greeley Estates - Sheltered - текст песни, таба, видео

Печатать
Просмотров: 124
Please rate and/or leave your feedback.

Song: Sheltered
Band: Greeley Estates
Album: Outside of This
Tabbed by: Mr. Picky
Tuning: Drop D

Verse I

e||--------------------------------------||
B||--------------------------------------||     _
G||------10-9-----10-9-----10-9----------|| \/  _|
D||--0-0------0-0------0-0------8-8-8----|| /\  _|
A||--0-0------0-0------0-0------8-8-8----||
D||--0-0------0-0------0-0------8-8-8----||

e||---------------------------------------------||
B||---------------------------------------------||
G||------10-9-----10-9-----10-9-----------------||
D||--0-0------0-0------0-0------8-8-8--7-7-7----||
A||--0-0------0-0------0-0------8-8-8--7-7-7----||
D||--0-0------0-0------0-0------8-8-8--7-7-7----||

Chorus

e||--------------------------------------------------||
B||--------------------------------------------------||     _
G||--------------------------------------------------|| \/  _|
D||--0----3----8----10-3h5p3-----0----3----8----7----|| /\ |_
A||--0----3----8----10-3h5p3-----0----3----8----7----||
D||--0----3----8----10-3h5p3-----0----3----8----7----||

Verse II


e||--------------------------------------||
B||--------------------------------------||     _
G||------10-9-----10-9-----10-9----------|| \/  _|
D||--0-0------0-0------0-0------8-8-8----|| /\  _|
A||--0-0------0-0------0-0------8-8-8----||
D||--0-0------0-0------0-0------8-8-8----||

e||---------------------------------------------||
B||---------------------------------------------||
G||------10-9-----10-9-----10-9-----------------||
D||--0-0------0-0------0-0------8-8-8--7-7-7----||
A||--0-0------0-0------0-0------8-8-8--7-7-7----||
D||--0-0------0-0------0-0------8-8-8--7-7-7----||

Chorus II

e||--------------------------------------------------||
B||--------------------------------------------------||     _
G||--------------------------------------------------|| \/  _|
D||--0----3----8----10-3h5p3-----0----3----8----7----|| /\ |_
A||--0----3----8----10-3h5p3-----0----3----8----7----||
D||--0----3----8----10-3h5p3-----0----3----8----7----||

e||-----------------||
B||-----------------||
G||-----------------||
D||-8---7--3h5p3----||
A||-8---7--3h5p3----||
D||-8---7--3h5p3----||
(forgotten who)

Bridge

e||-----------------------------------------------||
B||-----------------------------------------------||
G||-----------------------------------------------||
D||--0-0-0-0-0-----------0-0-0--3-2-1--0-0-0-0----||
A||--0-0-0-0-0--(pause)--0-0-0--3-2-1--0-0-0-0----||
D||--0-0-0-0-0-----------0-0-0--3-2-1--0-0-0-0----||


e||-------------------------------||
B||-------------------------------||
G||--5-5-5-5-----------5-5-5-5----||
D||--5-5-5-5--7-7-7-7--5-5-5-5----||
A||--3-3-3-3--7-7-7-7--3-3-3-3----||
D||-----------7-7-7-7-------------||

Bride II

e||-----5---3---3-----5---3---3----5---3---5---------3--------||
B||-------5---5---------5---5--------5---5-------5-6---6-5----||    _
G||-----------------------------3~------------5~--------------|| \/ _|
D||--0~-----------(0)-----------3~------------5~--------------|| /\ _|
A||--0~-----------(0)-----------1~------------3~--------------||
D||--0~-----------(0)-----------------------------------------||

e||-----5---3---3-----5---3---3-----------------------------||
B||-------5---5---------5---5-------------------------------||
G||-----------------------------3-3---3-3----5-5-5-5-5-5----||
D||--0~-----------(0)-----------3-3---3-3----5-5-5-5-5-5----||
A||--0~-----------(0)-----------1-1---1-1----3-3-3-3-3-3----||
D||--0~-----------(0)---------------------------------------||

Chorus

e||--------------------------------------------------||
B||--------------------------------------------------||     _
G||--------------------------------------------------|| \/  _|
D||--0----3----8----10-3h5p3-----0----3----8----7----|| /\ |_
A||--0----3----8----10-3h5p3-----0----3----8----7----||
D||--0----3----8----10-3h5p3-----0----3----8----7----||

Outro
(I don't know the lead part. sorry)

e||--------------------------------------------------||
B||--------------------------------------------------||     _
G||--------------------------------------------------|| \/  _|
D||--0----3----8----10-3h5p3-----0----3----8----7----|| /\ |_
A||--0----3----8----10-3h5p3-----0----3----8----7----||
D||--0----3----8----10-3h5p3-----0----3----8----7----||

Ends with:

e||-----------||
B||-----------||
G||-----------||
D||--0-0-0----||
A||--0-0-0----||
D||--0-0-0----||

END

Добавлено: 29.07.2012
Другие материалы по этой песне:
  • Аккорды и текст

Страница создана 28.07.2012
http://primanota.ru/greeley-estates/sheltered-chords.htm
Привет, Гость.
Предлагаем пройти революционный курс по гитаре.
Подарок от PrimaNota.Ru, забирай!