PrimaNota.ru - самый крупный в мире бесплатный архив песенных текстов, аккордов, табулатур и нот


Greeley Estates - Seven Hours - текст песни, таба, видео

Регистрация Запомнить меня
Войти через:  Facebook Google Twitter Vk Yandex Mail.ru

Greeley Estates - Seven Hours - текст песни, таба, видео

Печатать
Просмотров: 146
**UPDATED 2/20/10**
--I just decided to delete everything and start over from scratch again =] it needed to 
done!!!

RATE AND COMMENT THE NEW VERSION OF THIS TAB!! WHICH IS THIS ONE!! BY ME!! =]

Greeley Estates
"Seven Hours"
No Rain, No Rainbow

INTRO---
Guitar 1:
(0:00)
|---------------------------------------|
|---------------------------------------|
|---------------------------------------|
|---------------------------------------|
|---------0000---------------------0000-|
|-0-3-2-0-0000-0-3-2-0-6-0-0-3-2-0-0000-|
          ....                     ....

(0:03)
|--------------------------|
|--------------------------|
|--------------------------|
|--------------------------|
|---------------------0000-|
|-0-3-2-0-7-0-0-3-2-0-0000-|
                      ....

(0:05)
|--------------------------------------|
|--------------------------------------|
|--------------------------------------|
|--------------------------------------|
|---------------------0000-------------|
|-0-3-2-0-6-0-0-3-2-0-0000-0-3-2-0-7-0-|
                      ....

(0:07)
"Yeah!!!!..."
|---------------------------------------|
|---------------------------------------|
|---------------------------------------|
|---------------------------------------|
|---------0000---------------------0000-|
|-0-3-2-0-0000-0-3-2-0-6-0-0-3-2-0-0000-|
          ....                     ....

(0:10)
|--------------------------|
|--------------------------|
|--------------------------|
|--------------------------|
|---------------------0000-|
|-0-3-2-0-7-0-0-3-2-0-0000-|
                      ....

(0:13)
|--------------------------------------|
|--------------------------------------|
|--------------------------------------|
|--------------------------------------|
|---------------------0000-------------|
|-0-3-2-0-6-0-0-3-2-0-0000-0-3-2-0-7-0-|
                      ....

Guitar 2:
[I think...]
(0:00)
|---------------------------------------|
|---------------------------------------|
|---------------------------------------|
|---------------------------------------|
|-0-3-2-0-0000-0-3-2-0-6-0-0-3-2-0-0000-|
|---------0000---------------------0000-|
          ....                     ....

(0:03)
|--------------------------|
|--------------------------|
|--------------------------|
|--------------------------|
|-0-3-2-0-7-0-0-3-2-0-0000-|
|---------------------0000-|
                      ....

(0:05)
|--------------------------------------|
|--------------------------------------|
|--------------------------------------|
|--------------------------------------|
|-0-3-2-0-6-0-0-3-2-0-0000-0-3-2-0-7-0-|
|---------------------0000-------------|
                      ....

(0:07)
|----------------------------------------|
|----------------------------------------|
|----------------------------------------|
|----------------------------------------|
|-0-------00000------(6)-0-0-------00000-| <-- (n) = optional note
|-0-------00000------(6)-0-0-------00000-|
  .       .....       .  . .       .....

(0:10)
|---------------------------|
|---------------------------|
|---------------------------|
|---------------------------|
|-------(7)-0-0-------00000-|
|-------(7)-0-0-------00000-|
         .  . .       .....

(0:13)
|--------------------------------------|
|--------------------------------------|
|--------------------------------------|
|--------------------------------------|
|-------(6)-0-0-------00000--------0-0-|
|-------(6)-0-0-------00000--------0-0-|
         .  . .       .....        . .


VERSE 1 Part 1---
Guitar 1:
(0:15)
"Just know..."
|---------------------------------|
|---------------------------------|
|---------------------------------|
|-3-3-3-3-3-3-3-3-2-2-2-2---------|
|-3-3-3-3-3-3-3-3-2-2-2-2-1-1-1-1-|
|-3-3-3-3-3-3-3-3-2-2-2-2-1-1-1-1-|
                          . . . .

(0:18)
"you're not as smooth as you think..."
|--------------------------------------------------------------------|
|--------------------------------------------------------------------|
|--------------------------------------------------------------------|
|-3tp-0tp-3tp-0tp-3tp-0tp-3tp-0tp-8p7p6p0-9p8p7p0-10p9p8p0-11p10p9p0-|
|--------------------------------------------------------------------|
|--------------------------------------------------------------------|

Guitar 2:
(0:15)
|---------------------------------|
|---------------------------------|
|---------------------------------|
|-3-3-3-3-3-3-3-3-2-2-2-2---------|
|-3-3-3-3-3-3-3-3-2-2-2-2-1-1-1-1-|
|-3-3-3-3-3-3-3-3-2-2-2-2-1-1-1-1-|
                          . . . .

(0:18)
|-----------------------------------------------------------------|
|-----------------------------------------------------------------|
|-----------------------------------------------------------------|
|-3tp-0tp-3tp-0tp-3tp-0tp-3tp-0tp-8tp-5tp-7tp-4tp-6tp-3tp-5tp-2tp-|
|-----------------------------------------------------------------|
|-----------------------------------------------------------------|


VERSE 1 Part 2:
Both guitars:
(0:20)
"Oh, God, can you feel my pain? And I..."
|-----------------------------------------------------|
|-----------------------------------------------------|
|-----------------------------------------------------|
|-0~~--0----------------------------------------------|
|-0~~--0--00000--0000--00-00-00-00-00-00-00-00---0000-|
|-0~~--0--00000--0000--00-00-00-00-00-00-00-00---0000-|
          .....  ....  .. .. .. .. .. .. .. ..   ....

(0:26)
"tried, and I tried, but he never listened..."
|-----------------------------------------------------|
|-----------------------------------------------------|
|-----------------------------------------------------|
|-0~~--0----------------------------------------------|
|-0~~--0--00000--0000--00-00-00-00-00-00-00-00---0000-|
|-0~~--0--00000--0000--00-00-00-00-00-00-00-00---0000-|
          .....  ....  .. .. .. .. .. .. .. ..   ....

(0:31)
"Oh, God, can you feel my pain? And I..."
|-----------------------------------------------------|
|-----------------------------------------------------|
|-----------------------------------------------------|
|-0~~--0----------------------------------------------|
|-0~~--0--00000--0000--00-00-00-00-00-00-00-00---0000-|
|-0~~--0--00000--0000--00-00-00-00-00-00-00-00---0000-|
          .....  ....  .. .. .. .. .. .. .. ..   ....

(0:36)
"tried, and I tried, but he never listened..."
|-----------------------------------------------------|
|-----------------------------------------------------|
|-----------------------------------------------------|
|-0~~--0----------------------------------------------|
|-0~~--0--00000--0000--00-00-00-00-00-00-00-00---0000-|
|-0~~--0--00000--0000--00-00-00-00-00-00-00-00---0000-|
          .....  ....  .. .. .. .. .. .. .. ..   ....


PRECHORUS---
Guitar 1:
(0:41)
"Your house of lies will burn quickly and scatter the ashes of you..."
|-----------------------------------------------------------------|
|-----------------------------------------------------------------|
|-----------------------------------------------------------------|
|-----------------------------------------------------------------|
|-----------------------------------------------------------------|
|-5-5-5-5-5-5-5-5-5-5-5-5-5-6-6-0-3-3-3-3-3-3-3-3-2-2-2-1-1-1-1-1-|

(0:46)
"And soon they'll all know the story, soon they'll all know the truth..."
|--------------------------------------------------------------------------|
|--------------------------------------------------------------------------|
|------------------------------------------------//13-13-13-12-12-12-12-12-|
|------------------------------------------------//-x--x--x--x--x--x--x--x-|
|------------------------------------------------//11-11-11-10-10-10-10-10-|
|-5-5-5-5-5-5-5-5-5-5-5-5-5-6-6-0-3-3-3-3-3-3-3-3//------------------------|

Guitar 2:
(0:41)
|-----------------------------------------------------------------|
|-----------------------------------------------------------------|
|-----------------------------------------------------------------|
|-----------------------------------------------------------------|
|-----------------------------------------------------------------|
|-5-5-5-5-5-5-5-5-5-5-5-5-5-6-6-0-3-3-3-3-3-3-3-3-2-2-2-1-1-1-1-1-|

(0:46)
|--------------------------------------------------------------------------|
|--------------------------------------------------------------------------|
|------------------------------------------------//13-13-13-12-12-12-12-12-|
|------------------------------------------------//-x--x--x--x--x--x--x--x-|
|-2-2-2-2-2-2-2-2-2-2-2-2-2-3-3-3-5-5-5-5-5-5-5-5//11-11-11-10-10-10-10-10-|
|------------------------------------------------//------------------------|


CHORUS---
Guitar 1:
(0:52)
"Seven hours..."
|--------------------------------------------------|
|--------------------------------------------------|
|--------------------------------------------------|
|----------12-12-12-12~--10-10-10~--8-8-8~--7-7-7~-|
|-00000000-12-12-12-12~--10-10-10~--8-8-8~--7-7-7~-|
|-00000000-12-12-12-12~--10-10-10~--8-8-8~--7-7-7~-|
  ........

(0:54)
"And that's all you could say..."
|--------------------------------------------------|
|--------------------------------------------------|
|--------------------------------------------------|
|----------12-12-12-12~--10-10-10~--8-8-8~--7-7-7~-|
|-00000000-12-12-12-12~--10-10-10~--8-8-8~--7-7-7~-|
|-00000000-12-12-12-12~--10-10-10~--8-8-8~--7-7-7~-|
  ........

(0:57)
"Seven hours..."
|--------------------------------------------------|
|--------------------------------------------------|
|--------------------------------------------------|
|----------12-12-12-12~--10-10-10~--8-8-8~--7-7-7~-|
|-----0000-12-12-12-12~--10-10-10~--8-8-8~--7-7-7~-|
|-----0000-12-12-12-12~--10-10-10~--8-8-8~--7-7-7~-|
      ....

(0:59)
"Choke on your tongue..."
|--------------------------------------------------|
|--------------------------------------------------|
|--------------------------------------------------|
|----------12-12-12-12~--10-10-10~--8-8-8~--7-7-7~-|
|-00000000-12-12-12-12~--10-10-10~--8-8-8~--7-7-7~-|
|-00000000-12-12-12-12~--10-10-10~--8-8-8~--7-7-7~-|
  ........

(1:02)
"It all comes around..."
|---------------------------------|
|---------------------------------|
|---------------------------------|
|-6-6-6-6-6-6-6-6-6-6-6-6-6-6-6-6-|
|-6-6-6-6-6-6-6-6-6-6-6-6-6-6-6-6-|
|-6-6-6-6-6-6-6-6-6-6-6-6-6-6-6-6-|

Guitar 2:
(0:52)
|------------------------------------------------|
|-----------------------14-14-14-14~-------------|
|----------11-11-11-11~--------------11-11-11-11-|
|------------------------------------------------|
|-00000000---------------------------------------|
|-00000000---------------------------------------|
  ........

(0:54)
|------------------------------------------------|
|-----------------------14-14-14-14~-------------|
|----------11-11-11-11~--------------11-11-11-11-|
|------------------------------------------------|
|-00000000---------------------------------------|
|-00000000---------------------------------------|
  ........

(0:57)
|------------------------------------------------|
|-----------------------14-14-14-14~-------------|
|----------11-11-11-11~--------------11-11-11-11-|
|------------------------------------------------|
|-----0000---------------------------------------|
|-----0000---------------------------------------|
      ....

(0:59)
|------------------------------------------------|
|-----------------------14-14-14-14~-------------|
|----------11-11-11-11~--------------11-11-11-11-|
|------------------------------------------------|
|-00000000---------------------------------------|
|-00000000---------------------------------------|
  ........

(1:02)
|-------------------------------------------------|
|-14-14-14-14-14-14-14-14-14-14-14-14-14-14-14-14-|
|-11-11-11-11-11-11-11-11-11-11-11-11-11-11-11-11-|
|-------------------------------------------------|
|-------------------------------------------------|
|-------------------------------------------------|


REPEAT INTRO---
(1:05-1:19)
"And soon enough the sky will close in on you...
Oh..."


VERSE 2 Part 1---
Guitar 1:
(1:20)
"Now that you're gone, now that you're..."
|--------------------------------------|
|--------------------------------------|
|--------------------------------------|
|---3---------3-------2--------2---7-0-|
|-0---0-00000---0-0-0---0-0000---0-----|
|-0---0-00000---0-0-0---0-0000---0-----|
  .   . .....   . . .   . ....   .

(1:24)
"gone, now that you're gone, we're better..."
|--------------------------------------|
|--------------------------------------|
|--------------------------------------|
|-0h3---------3-------2--------2---7-0-|
|-----0-00000---0-0-0---0-0000---0-----|
|-----0-00000---0-0-0---0-0000---0-----|
      . .....   . . .   . ....   .

(1:28)
"off, now that you're gone, now that you're..."
|--------------------------------------|
|--------------------------------------|
|--------------------------------------|
|-0h3---------3-------2--------2---7-0-|
|-----0-00000---0-0-0---0-0000---0-----|
|-----0-00000---0-0-0---0-0000---0-----|
      . .....   . . .   . ....   .

(1:32)
"gone, now that you're gone, we're better..."
|--------------------------------------|
|--------------------------------------|
|--------------------------------------|
|-0h3---------3-------2--------2---7-0-|
|-----0-00000---0-0-0---0-0000---0-----|
|-----0-00000---0-0-0---0-0000---0-----|
      . .....   . . .   . ....   .

Guitar 2:
[enters at 1:28]
(1:28)
|-----------------------------------------|
|-----------------------------------------|
|-----------------------------------------|
|-0-3-5-------0-3-5---10---8p7p6---8------|
|-------00000-------0----0-------0--------|
|-------00000-------0----0-------0---0--0-|
        .....       .    .       .   

(1:32)
|-----------------------------------------|
|-----------------------------------------|
|-----------------------------------------|
|-0-3-5-------0-3-5---10---8p7p6---8------|
|-------00000-------0----0-------0--------|
|-------00000-------0----0-------0---0--0-|
        .....       .    .       .   


VERSE 2 Part 2---
[repeat VERSE 1 Part 2, EXCEPT add a pickslide after the 2nd time through]
(1:36-2:01)
"I've been blind...
But now I see you're a fake...
Oh, God, can you feel my pain?...
And I tried, and I tried, but he never listened...
Oh, God, can you feel my pain?...
And I tried, and I tried, but he never listened..."


PRECHORUS---
[repeat PRECHORUS]
"Your house of lies will burn quickly and scatter the ashes of you...
And soon they'll all know the story...
Soon they'll all know the truth..."


CHORUS---
[repeat CHORUS x2]
(2:01-2:35)
"Seven hours...
And that's all you could say...
Seven hours...
Choke on your tongue...
And it won't be the last time that you run away...
Choke on your tongue...
It all comes around..."


PREBREAKDOWN---
Guitar 1:
(2:35)
|----------------------------------------------------------------------|
|----------------------------------------------------------------------|
|----------------------------------------------------------------------|
|----------------------------------------------------------------------|
|----------------------------------------------------------------------|
|-00000000000000~--000000~--000000~--33333333-3-3-3-3~--2-2-2~--1-1-1~-|
  ..............   ......   ......   ........ . . . .   . . .   . . .

(2:41)
|----------------------------------------------------------------------|
|----------------------------------------------------------------------|
|----------------------------------------------------------------------|
|----------------------------------------------------------------------|
|----------------------------------------------------------------------|
|-00000000000000~--000000~--000000~--33333333-3-3-3-3~--2-2-2~--1-1-1~-|
  ..............   ......   ......   ........ . . . .   . . .   . . .

(2:46)
|----------------------------------------------------------------------|
|----------------------------------------------------------------------|
|----------------------------------------------------------------------|
|----------------------------------------------------------------------|
|----------------------------------------------------------------------|
|-00000000000000~--000000~--000000~--33333333-3-3-3-3~--2-2-2~--1-1-1~-|
  ..............   ......   ......   ........ . . . .   . . .   . . .

(2:51)
|--------------------------------------------------------------------|
|--------------------------------------------------------------------|
|--------------------------------------------------------------------|
|--------------------------------------------------------------------|
|-------------------------------------------------------2-2-2--1-1-1-|
|-00000000000000~--000000~--000000~--33333333-3-3-3-3---2-2-2--1-1-1-|
  ..............   ......   ......   ........ . . . .   . . .  . . .
                                                        ^^ hit these hard

Guitar 2:
(2:35)
|-------|
|-------|
|-------|
|-0~~~~-|
|-0~~~~-|
|-0~~~~-|

(2:41)
|-------|
|-------|
|-------|
|-0~~~~-|
|-0~~~~-|
|-0~~~~-|

(2:46)
|-------|
|-------|
|-------|
|-0~~~~-|
|-0~~~~-|
|-0~~~~-|

(2:51)
|--------------------------------------------------------------------|
|--------------------------------------------------------------------|
|--------------------------------------------------------------------|
|-0~~~~--------------------------------------------------------------|
|-0~~~~-------------------------------------------------2-2-2--1-1-1-|
|-0~~~~-------------------------------------------------2-2-2--1-1-1-|
                                                        . . .  . . .

BREAKDOWN---
Both guitars:
"Seven hours, and that's all you could say..."
(2:56)
|---------------------------------------------------------------|
|---------------------------------------------------------------|
|---------------------------------------------------------------|
|---------------------------------------------------------------|
|-00000000-0-0-0-0---0-0-0-0---33333333-3-3-3-3---2-2-2---1-1-1-|
|-00000000-0-0-0-0---0-0-0-0---33333333-3-3-3-3---2-2-2---1-1-1-|
  ........ . . . .   . . . .   ........ . . . .   . . .   . . .

(3:01)
"Seven hours, choke on your tongue..."
|---------------------------------------------------------------|
|---------------------------------------------------------------|
|---------------------------------------------------------------|
|---------------------------------------------------------------|
|-00000000-0-0-0-0---0-0-0-0---33333333-3-3-3-3---2-2-2---1-1-1-|
|-00000000-0-0-0-0---0-0-0-0---33333333-3-3-3-3---2-2-2---1-1-1-|
  ........ . . . .   . . . .   ........ . . . .   . . .   . . .

(3:06)
"And it won't be the last time that you..."
|---------------------------------------------------------------|
|---------------------------------------------------------------|
|---------------------------------------------------------------|
|---------------------------------------------------------------|
|-00000000-0-0-0-0---0-0-0-0---33333333-3-3-3-3---2-2-2---1-1-1-|
|-00000000-0-0-0-0---0-0-0-0---33333333-3-3-3-3---2-2-2---1-1-1-|
  ........ . . . .   . . . .   ........ . . . .   . . .   . . .

(3:12)
"run away, choke on your..."
|----------------------------------------------------------------|
|----------------------------------------------------------------|
|----------------------------------------------------------------|
|----------------------------------------------------------------|
|-00000000-0-0-0-0---0-0-0-0---33333333--------------------------|
|-00000000-0-0-0-0---0-0-0-0---33333333-3-3-3-3~--2-2-2~--1-1-1~-|
  ........ . . . .   . . . .   ........ ^^ slow down


OUTRO---
Both guitars:
(3:17)
"tongue, your..."
|-----------------------------------|
|-----------------------------------|
|-----------------------------------|
|-----------------------------------|
|-----------------------------------|
|-00000000-0-0-0-0~--0-0-0~--0-0-0~-|

(3:21)
"tongue, you..."
|-----------------------------------|
|-----------------------------------|
|-----------------------------------|
|-----------------------------------|
|-----------------------------------|
|-00000000-0-0-0-0~--0-0-0~--0-0-0~-|

(3:25)
"snake..."
|-----------------------------------|
|-----------------------------------|
|-----------------------------------|
|-----------------------------------|
|-----------------------------------|
|-00000000-0-0-0-0~--0-0-0~--0-0-0~-|

(3:29)
"choke on your tongue..."
|----------------------------------|
|----------------------------------|
|----------------------------------|
|----------------------------------|
|----------------------------------|
|-00000000-0-0-0-0~--0-0-0~--0-0-0-|


For the lyrical part, if you want a little extra something, you can play this for the 
Let each note RING.

(3:33)
"Se ven hou-rs, and that's all you could say..."
|--------------------------------------------|
|-------14-----------------14----------------|
|-11-11-----11---11---11-------11---11-------|
|-----------------------------------------15-|
|--------------------------------------------|
|--------------------------------------------|

(3:41-3:47)
"Se ven hou-rs..."
|----------------|
|-------14-------|
|-11-11-----11~~-|
|----------------|
|----------------|
|----------------|
Добавлено: 10.06.2012
Другие материалы по этой песне:
  • Аккорды и текст

Страница создана 10.06.2012
http://primanota.ru/greeley-estates/seven-hours-chords.htm
Привет, Гость.
Предлагаем пройти революционный курс по гитаре.
Подарок от PrimaNota.Ru, забирай!