PrimaNota.ru - самый крупный в мире бесплатный архив песенных текстов, аккордов, табулатур и нот


Greeley Estates - See Your Scars - текст песни, таба, видео

Регистрация Запомнить меня
Войти через:  Facebook Google Twitter Vk Yandex Mail.ru

Greeley Estates - See Your Scars - текст песни, таба, видео

Печатать
Просмотров: 162
Greeley Estates
See Your Scars
Far From Lies
2006
Submited by: paramore_fans@yahoo.com

Key: Bb

Tuning: Standard EADGBe

Chords used:
Gm - 355333
Bb - x13331
F -  133211
Cm - x35543
D -  xx0232 or x57775
Dm - xx0231 or x57765
Eb - x68876


Intro: Gm--Bb--Gm--Bb-F

Guitar 2:
         Gm                 Bb              Gm             Bb        F
e|-----------------|-----------------|-----------------|---------|---------|
B|-----3-----------|---------4-4-3-3-|-----3-3---------|---------|---------|
G|-0-0---0-2-2-3-3-|-3-2-3-2---------|-0-0-----2-2-3-3-|-3-2-3-2-|-----2---|
D|-----------------|-----------------|-----------------|---------|-3-3---3-|
A|-----------------|-----------------|-----------------|---------|---------|
E|-----------------|-----------------|-----------------|---------|---------|


Verse 1:
Gm         Bb
  each time i hurt you
Gm            Bb  F
  i see your scars
Gm                Bb
  i'm reminded of all
Gm       D
  you've done


Refrain: Scream
Cm       Bb
  now i'm in the same place
Cm               Bb
  right where i started
Cm      Bb
  caught in the things that
Cm             Dm
  will only destroy me


Guitar 2: while doing refrain
e|---------------------------------|
B|---------4-4-3-3-----------------|
G|-----3-3---------3---3-------2---|
D|-3-3---------------3---3-0-0---0-| x4
A|---------------------------------|
E|---------------------------------|


Chorus:
   Cm            Cm
so now i'm here again
            Gm Cm Bb
calling for you
    D Gm  Cm    Bb      D
why do i always fail you
   Cm            Cm
so now i'm here again
            Gm Cm Bb D
calling for you
            Gm Cm Bb D
calling for you
           D(hold)
why do you love me

(Repeat Intro)


Verse 2:
Gm       Bb
  and now i see that
Gm Bb              F
   that i'm the one
Gm           Bb    Gm  D
  who put the nails in you


(Repeat refrain and Chorus)


Interlude: Gm--Eb-Bb-Cm

Guitar 2:
         Gm                 Eb           Bb        Cm
e|-----------------|-----------------|---------|---------|
B|-----------------|-----------------|---------|-1-------|
G|-0-3-2-3-2-3-----|---3-2-3-2-3-2---|---3-2-3-|---3-2---|
D|-------------1-0-|-1-------------3-|-3-------|-------3-|
A|-----------------|-----------------|---------|---------|
E|-----------------|-----------------|---------|---------|
         x2

Bridge:
Gm
  something about you
Eb           Bb      Cm
  the more i let you in
(Repeat 3x)

(Repeat intro)

(Repeat Chorus twice)


Outro: Gm
e|-----------------|
B|-----3-----------|
G|-0-0---0-2-2-3-3-|
D|-----------------| repeat until fade
A|-----------------|
E|-----------------|
Добавлено: 19.07.2012
Другие материалы по этой песне:
  • Аккорды и текст

Страница создана 19.03.2012
http://primanota.ru/greeley-estates/see-your-scars-chords.htm
Привет, Гость.
Предлагаем пройти революционный курс по гитаре.
Подарок от PrimaNota.Ru, забирай!