PrimaNota.ru - самый крупный в мире бесплатный архив песенных текстов, аккордов, табулатур и нот


Greeley Estates - Secret - текст песни, таба, видео

Регистрация Запомнить меня
Войти через:  Facebook Google Twitter Vk Yandex Mail.ru

Greeley Estates - Secret - текст песни, таба, видео

Печатать
Просмотров: 181
Уроки эстрадного вокала в Санкт-Петербурге
Greeley Estates
Secret
Far From Lies
2006
Submitted by: paramore_fans@yahoo.com
This is a great acoustic song written by frontman Ryan Zimmerman

Tuning: Standard EADGBe and a capo on 3rd fret to make the G shape sound as Bb. No capo 
piano

* means harmonics
x means palm mute
/ means slide up

Intro:
e|-----------------------------|-------------------------------|
B|-----------------------------|-------------------------------|
G|-----0------0--0-----0-------|-----0------0--0---------------|
D|-----0------0----------------|-----0------0------------------|
A|---------------2-2-2-3-3-3-2-|---------------2-2-2-----------|
E|-0-0----0-0------------------|-0-0----0-0----------3-3-3-2h3-|
                                                     x x x
then
e|-----------------------------|-----------------|
B|-----------------------------|-----------------|
G|-----0------0--0-----0-------|-----0------0----|
D|-----0------0----------------|-----0------0--4-|
A|---------------2-2-2-3-3-3-2-|---------------5-|
E|-0-0----0-0------------------|-0-0----0-0------|


Verse 1:

For the first time, I saw inside of you
e|--------------|------------|
B|--------------|--------12*-|
G|----------0---|------------|
D|-----0------4-|-----0------|
A|---2----3-----|---2--------|
E|-0------------|-0----------|
        x3

And somewhere within you, lies the whole truth
e|-----------------|-----------------|
B|-----3-----------|-----3-----------|
G|---0---0---0-----|---0---0---------|
D|-------------4-0-|-----------5---5-|
A|---------3-------|-----------------|
E|-0---------------|-0-------3---2---|
        x3

It's time, to let go, to let go
e|--------------------|-----------------|
B|-----3--------------|-----------------|
G|---0---0-----0------|---0---0---------|
D|---------2/4---4-0--|-----------5---5-|
A|---------3----------|-----2-----------|
E|-0------------------|-0-------3---2---|
        x3


Chorus:

Your secret is safe with me Cause my leaps are sealed
e|---------|---------|---------|---------------|
B|---------|---------|---------|-1-1-1-1-1-1-1-|
G|-0--0--0-|-0--0--0-|-0--0--0-|-0-0-0-0-0-0-0-|
D|-2--2--2-|-0--0--0-|-2--2--2-|-2-2-2-2-2-2-2-|
A|-2--2--2-|-2--2--2-|-2--2--2-|-3-3-3-3-3-3-3-|
E|-0--0--0-|-3--3--3-|-0--0--0-|---------------|

Far from the lies they talk to you
e|---------|---------|---------|-2--2--2-|
B|---------|---------|---------|-3--3--3-|
G|-0--0--0-|-0--0--0-|-0--0--0-|-2--2--2-|
D|-2--2--2-|-0--0--0-|-2--2--2-|-0--0--0-|
A|-2--2--2-|-2--2--2-|-2--2--2-|---------|
E|-0--0--0-|-3--3--3-|-0--0--0-|---------|


Verse 2:

For all the times when you felt abandoned
e|--------------|------------|
B|--------------|--------12*-|
G|----------0---|------------|
D|-----0------4-|-----0------|
A|---2----3-----|---2--------|
E|-0------------|-0----------|
        x3

I want you to know that you're not alone
e|-----------------|-----------------|
B|-----3-----------|-----3-----------|
G|---0---0---0-----|---0---0---------|
D|-------------4-0-|-----------5---5-|
A|---------3-------|-----------------|
E|-0---------------|-0-------3---2---|
        x3

And now this weight has been lifted from you
e|--------------------|-----------------|
B|-----3--------------|-----------------|
G|---0---0-----0------|---0---0---------|
D|---------2/4---4-0--|-----------5---5-|
A|---------3----------|-----2-----------|
E|-0------------------|-0-------3---2---|
        x3


(Repeat Chorus 1)


Chorus 2:

And now that you let me in In on your secret
e|---------|---------|---------|---------------|
B|---------|---------|---------|-1-1-1-1-1-1-1-|
G|-0--0--0-|-0--0--0-|-0--0--0-|-0-0-0-0-0-0-0-|
D|-2--2--2-|-0--0--0-|-2--2--2-|-2-2-2-2-2-2-2-|
A|-2--2--2-|-2--2--2-|-2--2--2-|-3-3-3-3-3-3-3-|
E|-0--0--0-|-3--3--3-|-0--0--0-|---------------|

The sound of silence will soon fade away You're not alone
e|---------|---------|---------|-1-1-1-1-1-1-1-1-1-1-1-1-1-1-1-1-|
B|---------|---------|---------|-1-1-1-1-1-1-1-1-1-1-1-1-1-1-1-1-|
G|-0--0--0-|-0--0--0-|-0--0--0-|-2-2-2-2-2-2-2-2-2-2-2-2-2-2-2-2-|
D|-2--2--2-|-0--0--0-|-2--2--2-|-3-3-3-3-3-3-3-3-3-3-3-3-3-3-3-3-|
A|-2--2--2-|-2--2--2-|-2--2--2-|-3-3-3-3-3-3-3-3-3-3-3-3-3-3-3-3-|
E|-0--0--0-|-3--3--3-|-0--0--0-|-1-1-1-1-1-1-1-1-1-1-1-1-1-1-1-1-|


Bridge:

I want to be the one that you can count on
e|---------|---------|---------|----------|---------|
B|---------|---------|---------|----------|-----0---|
G|---0-----|---0-----|---0-----|---0------|-------0-|
D|-----4-0-|-----4-0-|-----4-0-|------4-0-|---0-----|
A|---------|---------|-3-------|-2--------|-0-------|
E|-0-------|-3-------|---------|----------|---------|
      x2        x2       x2

And i want to be someone that you can trust
e|---------|---------|---------|----------|---------|
B|---------|---------|---------|----------|-----0---|
G|---0-----|---0-----|---0-----|---0------|-------0-|
D|-----4-0-|-----4-0-|-----4-0-|------4-0-|---0-----|
A|---------|---------|-3-------|-2--------|-0-------|
E|-0-------|-3-------|---------|----------|---------|
      x2        x2       x2

And i'l keep my word, i made a promise to you
e|---------|---------|---------|----------|---------|
B|---------|---------|---------|----------|-----0---|
G|---0-----|---0-----|---0-----|---0------|-------0-|
D|-----4-0-|-----4-0-|-----4-0-|------4-0-|---0-----|
A|---------|---------|-3-------|-2--------|-0-------|
E|-0-------|-3-------|---------|----------|---------|
      x2        x2       x2

For what it's worth, i've always stood by your side
e|---------|---------|---------|----------|---------|
B|---------|---------|---------|----------|-3-3-3-3-|
G|---0-----|---0-----|---0-----|---0------|-2-2-2-2-|
D|-----4-0-|-----4-0-|-----4-0-|------4-0-|-0-0-0-0-|
A|---------|---------|-3-------|-2--------|---------|
E|-0-------|-3-------|---------|----------|---------|
      x2        x2       x2


Piano: in "i'll keep my word/for what it's worth"
e|----17-18----17-18----17-18----17-18-|
B|-18-------18-------18-------18-------|
G|-------------------------------------|
D|-------------------------------------|
A|-------------------------------------|
E|-------------------------------------|


Interlude:
e|-----------------------------|-------------------|
B|-----------------------------|---------------12*-|
G|-----0------0--0-----0-------|-----0------0--12*-|
D|-----0------0----------------|-----0------0--12*-|
A|---------------2-2-2-3-3-3-2-|-------------------|
E|-0-0----0-0------------------|-0-0----0-0--------|

(Repeat Chorus 1 and 2)

For the first time i saw inside of you
e|--------------|------------|
B|--------------|----------0-|
G|----------0---|----------0-|
D|-----0------4-|-----0----2-|
A|---2----3-----|---2------2-|
E|-0------------|-0--------0-|
        x3                 Let Ring


Lyrics mode: Capo on 3rd fret

Chords:
Em -   022000
Em7 -  022030
G -    320033
G/B -  x2x033
C -    x32010
D/F# - 2x023x
F -    133211
D -    xx0232
Bm -   x24432
Am -   x02210


Intro: Em--G/B-C-G/B--Em--G/B-G-D/F#-Em--G/B-C-G/B-Em--D/F#(hold)


Verse 1:
Em C  Em   C         Em  C     Em      harmonics
   For the first time, I saw inside of you
Em7   C        Em7  C     Em7 C        Em7   G    D/F#
  And somewhere within you,   lies the whole truth
Em7    C   Em7  C     Em7  C     Em7-G-D/F#
  It's time, to let go, to let go


Chorus 1:
Em           G             Em
  Your secret is safe with me
         C
Cause my leaps are sealed
Em         G        Em           D
  Far from the lies they talk to you


Verse 2:
Em    C  Em   C         Em   C     Em harmonics
  For all the times when you felt abandoned
Em7 C       Em7 C        Em7     C    Em7 G-D/F#
  I want you to know that you're not alone
Em7   C  Em7   C         Em7   C      Em7  G-D/F#
  And now this weight has been lifted from you


Chorus 2:
Em            G           Em
  And now that you let me in
   C
In on your secret
Em             G
  The sound of silence will
Em         F
soon fade away You're not alone


Bridge:
Em          D               C       Bm    Am
  I want to be the one that you can count on
Em              D               C       Bm   Am
  And i want to be someone that you can trust
Em                D              C       Bm Am
  And i'l keep my word, i made a promise to you
Em              D                   C       Bm   D
  For what it's worth, i've always stood by your side


Interlude: Em--G/B-C-G/B--Em--Harmonics


(Repeat Chorus 1 and 2)


Outro:
Em C  Em   C         Em  C     Em      Em(let ring)
   For the first time, I saw inside of you
Добавлено: 27.02.2012
Другие материалы по этой песне:

Страница создана 27.02.2012
http://primanota.ru/greeley-estates/secret-chords.htm
Привет, Гость.
Предлагаем пройти революционный курс по гитаре.
Подарок от PrimaNota.Ru, забирай!