PrimaNota.ru - самый крупный в мире бесплатный архив песенных текстов, аккордов, табулатур и нот


Greeley Estates - Lying Through Your Teeth Doesnt Count As Flossing - текст песни, таба, видео

Регистрация Запомнить меня
Войти через:  Facebook Google Twitter Vk Yandex Mail.ru

Greeley Estates - Lying Through Your Teeth Doesnt Count As Flossing - текст песни, таба, видео

Печатать
Просмотров: 103
Gotta love this song =] The breakdown is the SHIT!!!! Enjoy duders =]

**UPDATED 2/24/10**
--fixed a minor problem in the verse with Guitar 1

Greeley Estates
"Lying Through Your Teeth Doesn't Count As Flossing"
No Rain, No Rainbow

INTRO/PRECHORUS---
Guitar 1:
(0:00)
"Last chance to make this right..."
|-----------------------------------------|
|-----------------------------------------|
|-----------------------------------------|
|-----------------------------------------|
|-12-12-12-12-10-10-10-10-8-8-8-8-7-7-7-7-|
|-12-12-12-12-10-10-10-10-8-8-8-8-7-7-7-7-|

(0:05)
"This needs to end with us..."
|-----------------------------------------|
|-----------------------------------------|
|-----------------------------------------|
|-----------------------------------------|
|-12-12-12-12-10-10-10-10-7-7-7-7-7-7-7-7-|
|-12-12-12-12-10-10-10-10-7-7-7-7-7-7-7-7-|

Guitar 2:
(0:00)
|----------------------------------------|
|-11-11-11-11-11-11-11-11-11-11-11-11-11-|
|-14-14-14-14-14-14-14-14-14-14-14-14-14-|
|----------------------------------------|
|----------------------------------------|
|----------------------------------------|

(0:05)
|----------------------------------------|
|-11-11-11-11-11-11-11-11-11-11-11-11-11-|
|-14-14-14-14-14-14-14-14-14-14-14-14-14-|
|----------------------------------------|
|----------------------------------------|
|----------------------------------------|

SOLO RIFF---
Guitar 1:
(0:10)
|---------------------------------|
|---------------------------------|
|---------------------------------|
|---------------------------------|
|-000-6---5---8-------4-----0h3h6-|
|-000---0---0---0-6-0---0-0-------|
  ...   .   .   .   .   . .

(0:12)
|-------------------------------------|
|-------------------------------------|
|-------------------------------------|
|-------------------------------------|
|-----6---5---8-------4---0h3h6-0h4h7-|
|-0-0---0---0---0-6-0---0-------------|
  . .   .   .   .   .

(0:15)
|---------------------------------|
|---------------------------------|
|---------------------------------|
|---------------------------------|
|-000-6---5---8-------4-----0h3h6-|
|-000---0---0---0-6-0---0-0-------|
  ...   .   .   .   .   . .

(0:17)
|-------------------------------------|
|-------------------------------------|
|-------------------------------------|
|-------------------------------------|
|-----6---5---8-------4---0h3h6-0h4h7-|
|-0-0---0---0---0-6-0---0-------------|
  . .   .   .   .   .

Guitar 2:
[let ring throughout]
(0:10-0:20)
|-------|
|-------|
|-------|
|-0~~~~-|
|-0~~~~-|
|-0~~~~-|


VERSE 1---
Guitar 1:
(0:20)
"I'm just as fake, just as..."
|---------------------------------|
|---------------------------------|
|---------------------------------|
|---------------------------------|
|-000-6---5---8-------4-----0h3h6-|
|-000---0---0---0-6-0---0-0-------|
  ...   .   .   .   .   . .

(0:22)
"fake as all of you, my..."
|-------------------------------------|
|-------------------------------------|
|-------------------------------------|
|-------------------------------------|
|-----6---5---8-------4---0h3h6-0h4h7-|
|-0-0---0---0---0-6-0---0-------------|
  . .   .   .   .   .   .

(0:25)
"spirit is willing, it's..."
|---------------------------------|
|---------------------------------|
|---------------------------------|
|---------------------------------|
|-000-6---5---8-------4-----0h3h6-|
|-000---0---0---0-6-0---0-0-------|
  ...   .   .   .   .   . .

(0:27)
"my flesh that's just so very..."
|-------------------------------------|
|-------------------------------------|
|-------------------------------------|
|-------------------------------------|
|-----6---5---8-------4---0h3h6-0h4h7-|
|-0-0---0---0---0-6-0---0-------------|
  . .   .   .   .   .   .

Guitar 2: [now i'm not sure about the hammer-ons... any suggestions...?]
(0:20)
|---------------------------------|
|---------------------------------|
|---------------------------------|
|-----5---4---7-------3-----0h1h5-|
|-000-------------4---------------|
|-000---0---0---0---0---0-0-------|
  ...   .   .   .   .   . .

(0:22)
|---------------------------------------|
|---------------------------------------|
|---------------------------------------|
|-----5---4---7-------3-----0h1h5-0h4h6-|
|-000-------------4---------------------|
|-000---0---0---0---0---0-0-------------|
  ...   .   .   .   .   . .

(0:25)
|---------------------------------|
|---------------------------------|
|---------------------------------|
|-----5---4---7-------3-----0h1h5-|
|-000-------------4---------------|
|-000---0---0---0---0---0-0-------|
  ...   .   .   .   .   . .

(0:27)
|---------------------------------------|
|---------------------------------------|
|---------------------------------------|
|-----5---4---7-------3-----0h1h5-0h4h6-|
|-000-------------4---------------------|
|-000---0---0---0---0---0-0-------------|
  ...   .   .   .   .   . .


REFRAIN---
Guitar 1:
(0:30)
"weak..."
|-------------------------|
|-------------------------|
|-------------------------|
|-------------------------|
|-0-00-0-0-00000000-6-3---|
|-0-00-0-0-00000000-----4-|
  . .. . . ........

(0:32)
"When will we end this, tell me..."
|----------------------|
|----------------------|
|----------------------|
|----------------------|
|-0-00-0-0-00000000----|
|-0-00-0-0-00000000-1b-|
  . .. . . ........

(0:35)
"When will we end this, tell me, and..."
|-------------------------|
|-------------------------|
|-------------------------|
|-------------------------|
|-0-00-0-0-00000000-6-3---|
|-0-00-0-0-00000000-----4-|
  . .. . . ........

(0:37)
"will they believe us?..."
|-----------------------|
|-----------------------|
|-----------------------|
|-------------------3b*-|
|-0-00-0-0-00000000-----|
|-0-00-0-0-00000000-----|
  . .. . . ........

Guitar 2:
(0:30)
|--------------------------|
|--------------------------|
|--------------------------|
|--------------------------|
|-0-00-0-0-00000000-10-6---|
|-0-00-0-0-00000000------7-|
  . .. . . ........

(0:32)
|----------------------|
|----------------------|
|----------------------|
|----------------------|
|-0-00-0-0-00000000----|
|-0-00-0-0-00000000-1b-|
  . .. . . ........

(0:35)
|--------------------------|
|--------------------------|
|--------------------------|
|--------------------------|
|-0-00-0-0-00000000-10-6---|
|-0-00-0-0-00000000------7-|
  . .. . . ........

(0:37)
|-----------------------|
|-----------------------|
|-----------------------|
|-------------------7b*-|
|-0-00-0-0-00000000-----|
|-0-00-0-0-00000000-----|
  . .. . . ........


REPEAT PRECHORUS---
(0:40-0:50)
"Last chance to make this right...
This needs to end with us..."


CHORUS--- [NOTE: The lead part in the background is extremely hard to hear so I didn't 
it up... sorry guys, be gentle)
(0:50)
"If this is all they see, then what's the point of..."
|-------------------|
|-------------------|
|-------------------|
|-------------------|
|-------------------|
|-12tp-10tp-8tp-7tp-| <-- tp = tremolo pick

(0:55)
"saying we believe, it's something we won't..."
|---------------|
|---------------|
|---------------|
|---------------|
|---------------|
|-12tp-10tp-7tp-|


VERSE 2---
[repeat VERSE 1 x2]
NOTE: The second time repeating, there is different strumming involved. Listen and 
get it =]
(1:00-1:20)
"show...
Our lives say just the opposite of everything we say we believe in...
And just how long will we stand for this hypocrisy?..."


REPEAT REFRAIN---
(1:20-1:30)
"When we will end this...
Tell me...
When will we end this...
Tell me and will they believe us?..."

At the end, add a pinch harmonic like so...
|-----|
|-----|
|-----|
|-7b*-| <-- and bend up one full step
|-----|
|-----|


REPEAT PRECHORUS---
(1:40-1:50)
"If this is all they see...
Then what's the point in saying we believe?...
It's something we won't show..."


PREBREAKDOWN---
(1:51)
Guitar 1---
|---------------------------------|
|---------------------------------|
|---------------------------------|
|---------------------------------|
|-5tp-7tp-4tp-6tp-3tp-5tp-2tp-4tp-|
|---------------------------------|

Guitar 2---
|---------------------------------|
|---------------------------------|
|---------------------------------|
|-5tp-7tp-4tp-6tp-3tp-5tp-2tp-4tp-|
|---------------------------------|
|---------------------------------|


BREAKDOWN Part 1---
ONLY Guitar 1:
(1:54)
|-------------------------|
|-------------------------|
|-------------------------|
|-------------------------|
|-0-0-000-0-0-0-0-----3---|
|-0-0-000-0-0-0-0-3h4---4-|
  . . ... . . . .

(1:57)
"Don't make a mockery of her..."
|---------------------------|
|---------------------------|
|---------------------------|
|--------------------0----0-|
|-0-0-000-0-0-0-0----6----6-|
|-0-0-000-0-0-0-0-00---00---|
  . . ... . . . . ..   ..

(2:01)
"Don't make a mockery of her, she's..."
|-------------------------|
|-------------------------|
|-------------------------|
|-------------------------|
|-0-0-000-0-0-0-0-----3---|
|-0-0-000-0-0-0-0-3h4---4-|
  . . ... . . . .

(2:05)
"not your bride..."
|---------------|
|---------------|
|---------------|
|---------------|
|-0-0-000-0-----|
|-0-0-000-0-1b2-|
  . . ... .

BREAKDOWN Part 2---
Guitar 1:
(2:08)
"Don't make a mockery of her..."
|-------------------------|
|-------------------------|
|-------------------------|
|-------------------------|
|-0-0-000-0-0-0-0-----3---|
|-0-0-000-0-0-0-0-3h4---4-|
  . . ... . . . .

(2:12)
"Don't make a mockery of her..."
|---------------------------|
|---------------------------|
|---------------------------|
|--------------------0----0-|
|-0-0-000-0-0-0-0----6----6-|
|-0-0-000-0-0-0-0-00---00---|
  . . ... . . . . ..   ..

(2:16)
"Don't make a mockery of her, she's..."
|-------------------------|
|-------------------------|
|-------------------------|
|-------------------------|
|-0-0-000-0-0-0-0-----3---|
|-0-0-000-0-0-0-0-3h4---4-|
  . . ... . . . .

(2:20)
"not your bride..."
|---------------|
|---------------|
|---------------|
|---------------|
|-0-0-000-0-----|
|-0-0-000-0-1b2-|
  . . ... .

(2:24)
"Don't..."
|-------------------------|
|-------------------------|
|-------------------------|
|-------------------------|
|-0-0-000-0-0-0-0-----3---|
|-0-0-000-0-0-0-0-3h4---4-|
  . . ... . . . .

(2:27)
"Don't make a mockery of her, she's..."
|---------------------------|
|---------------------------|
|---------------------------|
|--------------------0----0-|
|-0-0-000-0-0-0-0----6----6-|
|-0-0-000-0-0-0-0-00---00---|
  . . ... . . . . ..   ..

(2:31)
"not your bride, she's..."
|-------------------------|
|-------------------------|
|-------------------------|
|-------------------------|
|-0-0-000-0-0-0-0-----3---|
|-0-0-000-0-0-0-0-3h4---4-|
  . . ... . . . .

(2:34)
"not your bride..."
|---------------|
|---------------|
|---------------|
|---------------|
|-0-0-000-0-----|
|-0-0-000-0-1b2-|
  . . ... .

Guitar 2:
(2:08)
|-------------------------|
|-------------------------|
|-------------------------|
|-------------------------|
|-0-0-000-0-0-0-0-----6---|
|-0-0-000-0-0-0-0-6h7---7-|
  . . ... . . . .

(2:12)
|---------------------------|
|---------------------------|
|---------------------------|
|--------------------0----0-|
|-0-0-000-0-0-0-0----6----6-|
|-0-0-000-0-0-0-0-00---00---|
  . . ... . . . . ..   ..

(2:16)
|-------------------------|
|-------------------------|
|-------------------------|
|-------------------------|
|-0-0-000-0-0-0-0-----6---|
|-0-0-000-0-0-0-0-6h7---7-|
  . . ... . . . .

(2:20)
|---------------|
|---------------|
|---------------|
|---------------|
|-0-0-000-0-----|
|-0-0-000-0-1b2-|
  . . ... .

(2:24)
|-------------------------|
|-------------------------|
|-------------------------|
|-------------------------|
|-0-0-000-0-0-0-0-----6---|
|-0-0-000-0-0-0-0-6h7---7-|
  . . ... . . . .

(2:27)
|---------------------------|
|---------------------------|
|---------------------------|
|--------------------0----0-|
|-0-0-000-0-0-0-0----6----6-|
|-0-0-000-0-0-0-0-00---00---|
  . . ... . . . . ..   ..

(2:31)
|-------------------------|
|-------------------------|
|-------------------------|
|-------------------------|
|-0-0-000-0-0-0-0-----6---|
|-0-0-000-0-0-0-0-6h7---7-|
  . . ... . . . .

(2:34)
---------------|
|---------------|
|---------------|
|---------------|
|-0-0-000-0-----|
|-0-0-000-0-1b2-|
  . . ... .


REPEAT CHORUS x2--- [slower]
(2:38-3:07)
"If this is all they see...
Then what's the point in saying we believe?...
It's something we won't live for...
If this is all they see...
Then what's the point in saying we believe?...
It's something we won't live for...
(We tell a story...
Our hearts are just as empty...)"


OUTRO---
Guitar 1:
"If this is all they see..."
(3:08)
|------------------|
|------------------|
|------------------|
|-0~~--------------|
|-0~~--000000-0000-|
|-0~~--000000-0000-|
       ...... ....

(3:11-3:17)
"We gotta start living it out..."
|------------------|
|------------------|
|------------------|
|-0~~--------------|
|-0~~--000000-0000-|
|-0~~--000000-0000-|
       ...... ....

Guitar 2:
|------|
|------|
|------|
|-3~~~-|
|-0~~~-|
|-0~~~-|
Добавлено: 21.02.2012
Другие материалы по этой песне:
  • Аккорды и текст

Страница создана 21.02.2012
http://primanota.ru/greeley-estates/lying-through-your-teeth-doesnt-count-as-flossing-chords.htm
Привет, Гость.
Предлагаем пройти революционный курс по гитаре.
Подарок от PrimaNota.Ru, забирай!