PrimaNota.ru - самый крупный в мире бесплатный архив песенных текстов, аккордов, табулатур и нот


Greeley Estates - Loyal Com - текст песни, таба, видео

Регистрация Запомнить меня
Войти через:  Facebook Google Twitter Vk Yandex Mail.ru

Greeley Estates - Loyal Com - текст песни, таба, видео

Печатать
Просмотров: 130
Уроки эстрадного вокала в Санкт-Петербурге
EPIC SONG!! The third track off of "No Rain, No Rainbow". Pretty easy compared to the
of the songs. ENJOY!!

Rate and comment!!
99% accurate =] let me know if something is messed up!!

**UPDATED 2/24/10**
--inserted lyrics
--edited some minor guitar parts, but it made all the difference in accuracy.
--NOTE: the Guitar 2 part is still unsure of, but it will be fixed with suggestions and help =]

Greeley Estates
"Loyal.com"
No Rain, No Rainbow

INTRO---
[this is some weird effect but you can play these notes during this time]:
(0:00-0:09)
|-------------------------------------|
|-------------------------------------|
|-------------------------------------|
|-------------------------------------|
|-1-1-1-1-1-1-1-1-1-1-1-----3---3---3-|
|-2-2-2-2-2-2-2-2-2-2-2---------------|
  . . . . . . . . . . .

VERSE---
Guitar 1:
(0:10)
"Yeah..."
|-------------------------------------|
|-------------------------------------|
|-------------------------------------|
|-------------------------------------|
|----------------0000----0000----0000-|
|-/10-0--0--0--0-0000-3~-0000-2~-0000-|
                 ....    ....    ....

(0:12)
"this is the last thing I'll ever..."
|--------------------------------|
|--------------------------------|
|--------------------------------|
|--------------------------------|
|--------------------------------|
|-/10-0--0--0--0-7-8-7-0-5-0-8-0-|

(0:14)
"say to you..."
|-------------------------------------|
|-------------------------------------|
|-------------------------------------|
|-------------------------------------|
|----------------0000----0000----0000-|
|-/10-0--0--0--0-0000-3~-0000-2~-0000-|
                 ....    ....    ....

(0:17)
|--------------------------------|
|--------------------------------|
|--------------------------------|
|----------------7tp-8tp-5tp-7tp-| <-- tp = tremolo pick
|--------------------------------|
|-/10-0--0--0--0-----------------|

(0:19)
"Soon you'll feel us, we're getting closer..."
|-------------------------------------|
|-------------------------------------|
|-------------------------------------|
|-------------------------------------|
|----------------0000----0000----0000-|
|-/10-0--0--0--0-0000-3~-0000-2~-0000-|
                 ....    ....    ....

(0:21)
"Soon enough you won't even breathe..."
|--------------------------------|
|--------------------------------|
|--------------------------------|
|--------------------------------|
|--------------------------------|
|-/10-0--0--0--0-7-8-7-0-5-0-8-0-|

(0:24)
"Soon you'll know that we're getting closer..."
|-------------------------------------|
|-------------------------------------|
|-------------------------------------|
|-------------------------------------|
|----------------0000----0000----0000-|
|-/10-0--0--0--0-0000-3~-0000-2~-0000-|
                 ....    ....    ....

(0:26)
"And by that time you'd better be ready for hell..."
|------------------------------------------------|
|------------------------------------------------|
|------------------------------------------------|
|----------------7tp-8tp-5tp-7tp-3tp-5tp-2tp-3tp-|
|------------------------------------------------|
|-/10-0--0--0--0---------------------------------|

Guitar 2:
(0:10)
|-------------------------------------|
|-------------------------------------|
|-------------------------------------|
|-------------------------------------|
|----------------0000-5~-0000-4~-0000-|
|-/10-0--0--0--0-0000----0000----0000-|
                 ....    ....    ....

(0:12)
|--------------------------------|
|--------------------------------|
|--------------------------------|
|--------------------------------|
|----------------5-7-5-0-5-7-8-5-| <-- this is the only part
|-/10-0--0--0--0-----------------|     I'm not sure of... it's
                                       very hard to hear.
(0:14)
|-------------------------------------|
|-------------------------------------|
|-------------------------------------|
|-------------------------------------|
|----------------0000-5~-0000-4~-0000-|
|-/10-0--0--0--0-0000----0000----0000-|
                 ....    ....    ....

(0:17)
|--------------------------------|
|--------------------------------|
|--------------------------------|
|--------------------------------|
|----------------5tp-6tp-3tp-5tp-|
|-/10-0--0--0--0-----------------|

(0:19)
|-------------------------------------|
|-------------------------------------|
|-------------------------------------|
|-------------------------------------|
|----------------0000-5~-0000-4~-0000-|
|-/10-0--0--0--0-0000----0000----0000-|
                 ....    ....    ....

(0:21)
|--------------------------------|
|--------------------------------|
|--------------------------------|
|--------------------------------|
|----------------5-7-5-0-5-7-8-0-|
|-/10-0--0--0--0-----------------|

(0:24)
|-------------------------------------|
|-------------------------------------|
|-------------------------------------|
|-------------------------------------|
|----------------0000-5~-0000-4~-0000-|
|-/10-0--0--0--0-0000----0000----0000-|
                 ....    ....    ....

(0:26)
|------------------------------------------------|
|------------------------------------------------|
|------------------------------------------------|
|------------------------------------------------|
|----------------5tp-7tp-5tp-----5tp-7tp-8tp-5tp-|
|-/10-0--0--0--0-------------7tp-----------------|


CHORUS---
Guitar 1:
(0:29)
"You know what you did, you thought you got..."
|---------------------------------------------------------------------------------|
|---------------------------------------------------------------------------------|
|---------------------------------------------------------------------------------|
|---------------------------------------------------------------------------------|
|---------------------------------------------------------------------------------|
|-0-0-0-0-0-0-12-12-12-12-12-12-12-12-12-12-11-11-11-11-11-11-7-7-7-7-7-7-7-7-7-7-|

(0:34)
"away with it, revenge is a beautiful..."
|-------------------------------------------------------------------|
|-------------------------------------------------------------------|
|-------------------------------------------------------------------|
|-------------------------------------------------------------------|
|-------------------------------------------------------------------|
|-7-8-8-8-8-8-8-8-8-8-8-8-8-8-8-8-8-3-3-3-3-3-3-2-2-2-2-2-2-2-2-2-2-|

Guitar 2:
(0:29)
|-----------------------------------------------------------------|
|-----------------------------------------------------------------|
|-----------------------------------------------------------------|
|-----------------------------------------------------------------|
|-------------8-8-8-8-8-8-8-8-8-8-7-7-7-7-7-7-4-4-4-4-4-4-4-4-4-4-|
|-0-0-0-0-0-0-----------------------------------------------------|

(0:34)
|-------------------------------------------------------------------|
|-------------------------------------------------------------------|
|-------------------------------------------------------------------|
|-------------------------------------------------------------------|
|-4-5-5-5-5-5-5-5-5-5-5-5-5-5-5-5-5---------------------------------|
|-----------------------------------3-3-3-3-3-3-2-2-2-2-2-2-2-2-2-2-|


VERSE 2---
(0:39-0:59)
[repeat VERSE 1]
"thing...
When you feel us, we're getting closer...
Just know that your time as come...
I told you that we're getting closer...
I told you that we'd find you and finish this thing..."

CHORUS 2---
Guitar 1:
(0:59)
"You know what you did, you thought you got..."
|-------------------------------------------|
|-------------------------------------------|
|-------------------------------------------|
|-------------------------------------------|
|-------------------------------------------|
|-0-0-0-12-12-12-12-12-11-11-11-7-7-7-7-7-7-|

(1:04)
"away with it, revenge is a beautiful..."
|-----------------------------------|
|-----------------------------------|
|-----------------------------------|
|-----------------------------------|
|-----------------------------------|
|-7h8-8-8-8-8-8-8-8-3-3-3-2-2-2-2-2-|

(1:09)
"thing, just know, you'll always be..."
|---------------------------------------------------------------------------------|
|---------------------------------------------------------------------------------|
|---------------------------------------------------------------------------------|
|---------------------------------------------------------------------------------|
|-------------12-12-12-12-12-12-12-12-12-12-11-11-11-11-11-11-7-7-7-7-7-7-7-7-7-7-|
|-0-0-0-0-0-0---------------------------------------------------------------------|

(1:14)
"dead to me, since you walked away..."
|-------------------------------------------------------------------|
|-------------------------------------------------------------------|
|-------------------------------------------------------------------|
|-------------------------------------------------------------------|
|-------------------------------------------------------------------|
|-7-8-8-8-8-8-8-8-8-8-8-8-8-8-8-8-8-3-3-3-3-3-3-2-2-2-2-2-2-2-2-2-2-|

Guitar 2:
(0:59)
|---------------------------------|
|---------------------------------|
|---------------------------------|
|---------------------------------|
|-------8-8-8-8-8-7-7-7-4-4-4-4-4-|
|-0-0-0---------------------------|

(1:04)
|-----------------------------------|
|-----------------------------------|
|-----------------------------------|
|-----------------------------------|
|-4h5-5-5-5-5-5-5-5-----------------|
|-------------------3-3-3-2-2-2-2-2-|

(1:09)
|-----------------------------------------------------------------|
|-----------------------------------------------------------------|
|-----------------------------------------------------------------|
|-----------------------------------------------------------------|
|-------------8-8-8-8-8-8-8-8-8-8-7-7-7-7-7-7-4-4-4-4-4-4-4-4-4-4-|
|-0-0-0-0-0-0-----------------------------------------------------|

(1:04)
|-------------------------------------------------------------------|
|-------------------------------------------------------------------|
|-------------------------------------------------------------------|
|-------------------------------------------------------------------|
|-4-5-5-5-5-5-5-5-5-5-5-5-5-5-5-5-5---------------------------------|
|-----------------------------------3-3-3-3-3-3-2-2-2-2-2-2-2-2-2-2-|


VERSE 2 (or I guess you could call it an epic BRIDGE)---
Guitar 1:
(1:19)
                                        "dead to..."
|----------------------------------------------------------|
|----------------------------------------------------------|
|----------------------------------------------------------|
|----------------------------------------------------------|
|----------------------------------------------------------|
|-/10-0--0--0--0-5-0--0--0--0-8-0--0--0--0-7-8-7-0-5-0-8-0-|

(1:24)
"me, dead to..."
|----------------------------------------------------------|
|----------------------------------------------------------|
|----------------------------------------------------------|
|----------------------------------------------------------|
|------------------------------------------0000----0000----|
|-/10-0--0--0--0-5-0--0--0--0-8-0--0--0--0-0000-3~-0000-2~-|
                                           ....    ....

(1:28)
"me..."
|----------------------------------------------------------|
|----------------------------------------------------------|
|----------------------------------------------------------|
|----------------------------------------------------------|
|----------------------------------------------------------|
|-/10-0--0--0--0-5-0--0--0--0-8-0--0--0--0-7-8-7-0-5-0-8-0-|

(1:33)
|----------------------------------------------------------|
|----------------------------------------------------------|
|----------------------------------------------------------|
|----------------------------------------------------------|
|------------------------------------------0000----0000----|
|-/10-0--0--0--0-5-0--0--0--0-8-0--0--0--0-0000-3~-0000-2~-|
                                           ....    ....

(1:38)
"Watch your back, it's not over yet..."
|----------------------------------------------------------|
|----------------------------------------------------------|
|----------------------------------------------------------|
|------------------------------------------7tp-8tp-5tp-7tp-|
|----------------------------------------------------------|
|-/10-0--0--0--0-5-0--0--0--0-8-0--0--0--0-----------------|

(1:43)
"Watch your back, it's not over yet..."
|--------------------------------------------------------------------------|
|--------------------------------------------------------------------------|
|--------------------------------------------------------------------------|
|--------------------------------------------------------------------------|
|------------------------------------------0000----0000----0000----0000----|
|-/10-0--0--0--0-5-0--0--0--0-8-0--0--0--0-0000-3~-0000-2~-0000-3~-0000-2~-|
                                           ....    ....    ....    ....

Guitar 2:
(1:19)
|----------------------------------------------------------|
|----------------------------------------------------------|
|----------------------------------------------------------|
|----------------------------------------------------------|
|----------------------------------------------------------|
|-/10-0--0--0--0-5-0--0--0--0-8-0--0--0--0-7-8-7-0-5-0-8-0-|

(1:24)
|----------------------------------------------------------|
|----------------------------------------------------------|
|----------------------------------------------------------|
|----------------------------------------------------------|
|------------------------------------------0000-5~-0000-4~-|
|-/10-0--0--0--0-5-0--0--0--0-8-0--0--0--0-0000----0000----|
                                           ....     ....

(1:28)
|----------------------------------------------------------|
|----------------------------------------------------------|
|----------------------------------------------------------|
|----------------------------------------------------------|
|----------------------------------------------------------|
|-/10-0--0--0--0-5-0--0--0--0-8-0--0--0--0-7-8-7-0-5-0-8-0-|

(1:33)
|----------------------------------------------------------|
|----------------------------------------------------------|
|----------------------------------------------------------|
|----------------------------------------------------------|
|------------------------------------------0000-5~-0000-4~-|
|-/10-0--0--0--0-5-0--0--0--0-8-0--0--0--0-0000----0000----|
                                           ....     ....

(1:38)
|----------------------------------------------------------|
|----------------------------------------------------------|
|----------------------------------------------------------|
|----------------------------------------------------------|
|------------------------------------------5tp-6tp-3tp-5tp-|
|-/10-0--0--0--0-5-0--0--0--0-8-0--0--0--0-----------------|

(1:43)
|----------------------------------------------------------------------------|
|----------------------------------------------------------------------------|
|----------------------------------------------------------------------------|
|----------------------------------------------------------------------------|
|-----------------------------------------------5~------4~------5~------4~---|
|-/10-0--0--0--0-5-0--0--0--0-8-0--0--0--0-0000----0000----0000----0000------|
                                           ....    ....    ....    ....

BREAKDOWN part 1---
Both guitars:
(1:49)
"I won't rest until this ends..."
|---------------------------------------------------|
|---------------------------------------------------|
|---------------------------------------------------|
|---------------------------------------------------|
|-00000--0--0--0-0-0-0--00000--0--0--0-0-0-0--0-0-0-|
|-00000--0--0--0-0-0-0--00000--0--0--0-0-0-0--0-0-0-|
  .....  .  .  . . . .  .....  .  .  . . . .  . . .

(1:53)
"I won't rest until this ends..."
|----------------------------------------------|
|----------------------------------------------|
|----------------------------------------------|
|----------------------------------------------|
|-00000--0--0--0-0-0-0--00000--0--0--0-0-0-0~~-|
|-00000--0--0--0-0-0-0--00000--0--0--0-0-0-0~~-|
  .....  .  .  . . . .  .....  .  .  . . . .

BREAKDOWN PART 2---
Both guitars:
(2:01)
[slow it down...]
"I won't rest until this ends..."
|------------------------------------------------------------|
|------------------------------------------------------------|
|------------------------------------------------------------|
|------------------------------------------------------------|
|-00000~--0~--0~--0-0-0-0~--00000~--0~--0~--0-0-0-0~--0-0-0~-|
|-11111~--1~--1~--1-1-1-1~--11111~--1~--1~--1-1-1-1~--1-1-1~-|
  .....   .   .   . . . .   .....   .   .   . . . .   . . .

(2:09)
"I won't rest until this ends..."
|------------------------------------------------------------|
|------------------------------------------------------------|
|------------------------------------------------------------|
|------------------------------------------------------------|
|-00000~--0~--0~--0-0-0-0~--00000~--0~--0~--0-0-0-0~--0-0-0~-|
|-11111~--1~--1~--1-1-1-1~--11111~--1~--1~--1-1-1-1~--1-1-1~-|
  .....   .   .   . . . .   .....   .   .   . . . .   . . .

(2:16)
|-------|
|-------|
|-------|
|-0~~~~-|
|-0~~~~-|
|-0~~~~-|


REPEAT CHORUS (not chorus 2) 2x---
(2:18-2:37)
"You know what you did...
You thought you got away with it...
Revenge is a beautiful thing...
Just know, you'll always be dead to me...
Since you walked away..."

OUTRO---
Guitar 1:
(2:37)
                                        "you're dead to..."
|----------------------------------------------------------|
|----------------------------------------------------------|
|----------------------------------------------------------|
|----------------------------------------------------------|
|----------------------------------------------------------|
|-/10-0--0--0--0-5-0--0--0--0-8-0--0--0--0-7-8-7-0-5-0-8-0-|

(2:42)
"me, dead to..."
|----------------------------------------------------------|
|----------------------------------------------------------|
|----------------------------------------------------------|
|----------------------------------------------------------|
|------------------------------------------0000----0000----|
|-/10-0--0--0--0-5-0--0--0--0-8-0--0--0--0-0000-3~-0000-2~-|
                                           ....    ....

(2:47)
"me..."
|----------------------------------------------------------|
|----------------------------------------------------------|
|----------------------------------------------------------|
|------------------------------------------7tp-8tp-5tp-7tp-|
|----------------------------------------------------------|
|-/10-0--0--0--0-5-0--0--0--0-8-0--0--0--0-----------------|

(2:52)
|----------------------------------------------------------|
|----------------------------------------------------------|
|----------------------------------------------------------|
|----------------------------------------------------------|
|------------------------------------------0000----0000----|
|-/10-0--0--0--0-5-0--0--0--0-8-0--0--0--0-0000-3~-0000-2~-|
                                           ....    ....

Guitar 2:
(2:37)
|----------------------------------------------------------|
|----------------------------------------------------------|
|----------------------------------------------------------|
|----------------------------------------------------------|
|------------------------------------------5-7-5-0-3-0-5-0-|
|-/10-0--0--0--0-5-0--0--0--0-8-0--0--0--0-----------------|

(2:42)
|----------------------------------------------------------|
|----------------------------------------------------------|
|----------------------------------------------------------|
|----------------------------------------------------------|
|------------------------------------------0000-5~-0000-4~-|
|-/10-0--0--0--0-5-0--0--0--0-8-0--0--0--0-0000----0000----|
                                           ....     ....

(2:47)
|----------------------------------------------------------|
|----------------------------------------------------------|
|----------------------------------------------------------|
|----------------------------------------------------------|
|------------------------------------------5tp-6tp-3tp-5tp-|
|-/10-0--0--0--0-5-0--0--0--0-8-0--0--0--0-----------------|

(2:52)
|----------------------------------------------------------|
|----------------------------------------------------------|
|----------------------------------------------------------|
|----------------------------------------------------------|
|------------------------------------------0000-5~-0000-4~-|
|-/10-0--0--0--0-5-0--0--0--0-8-0--0--0--0-0000----0000----|
                                           ....     ....


And for the little electronic sitar-sounding thing at the end, you can play this:

(2:57-3:05)
|-------------------------|
|-------------------------|
|-------------------------|
|-7~-5-7-7---7~-5-7-5-----|
|----------8----------7~~-|
|-------------------------|
Добавлено: 03.03.2012
Другие материалы по этой песне:

Страница создана 03.03.2012
http://primanota.ru/greeley-estates/loyal-com-chords.htm
Привет, Гость.
Предлагаем пройти революционный курс по гитаре.
Подарок от PrimaNota.Ru, забирай!