PrimaNota.ru - самый крупный в мире бесплатный архив песенных текстов, аккордов, табулатур и нот


Greeley Estates - Life Is A Garden - аккорды и текст, видео

Регистрация Запомнить меня
Войти через:  Facebook Google Twitter Vk Yandex Mail.ru

Greeley Estates - Life Is A Garden - аккорды и текст, видео

Печатать
Просмотров: 97
Life Is A Garden
Greeley Estates
Greeley Estates
Life Is A Garden
Caveat Emptor EP/Far From The Lies
Submitted by: paramore_fans@yahoo.com

Tuning: Standard EADGBe on all guitars


Chords used:
G   - 320003
Am  - x02210
F   - 133211
Em  - 022000
C   - x32010
Cm7 - x32000
Dm  - xx0232

Intro: Guitar 1 G-Am-F (x3) F then

Guitar 1: Am--Em

Guitar 2: Plucking before entering verse
        Am (x2 this bar)                         Em
e|-0-----0---------------------|-0------------------------0----------------0h1p0-|
B|-1-0h1---1----0----0-----0h1-|-0-0-3p0----0----0----0h1-0-0-3p0----0-----------|
G|-2----------2----2----2------|-0--------0----0----0-----0--------0----0--------|
D|-2---------------------------|-2------------------------2----------------------|
A|-0---------------------------|-2------------------------2----------------------|
E|-----------------------------|-0------------------------0----------------------|

Guitar 3:
e|-5~--------5~---3~--10~--10~--8~--|
B|------1~--------------------------|
G|----------------------------------|
D|----------------------------------|
A|----------------------------------|
E|----------------------------------|


Verse 1:
    Am
you feel their eyes upon you

you hear their words behind you
Em
what do they know about you?
        Am
they'll tell you what you should be

tell you what you should do
        Em
they'll never believe in you


Chorus 1:
Em                   F
somebody should have told you
   Am
it never comes easy

Scream: Never comes easy
Em                   F
somebody should have told you that
        Am       G
there's no guarantees

Scream: No guarantees
Em       F       Am
that you lose it all

when you stop dreaming
          G
Nothing's going around your tops away


Post Chorus 1:

Guitar 1: F--F--F--G

Guitar 2:
     x3 this bar
e|--------------|-3--3--3--|
B|------0h1-----|-0--0--0--|
G|-2-2----------|-0--0--0--|
D|-3-3----------|-0--0--0--|
A|--------------|----------|
E|--------------|----------|


Verse 2:
Am
this is your time to stand up

this is the time to fight for
Em
all that you know and you believe
    Am
you owe it to yourself to

find out what you're meant for
        Em
there's no way to know if you run


Chorus 2:
Em                   F
somebody should have told you
   Am
it never comes easy

Scream: Never comes easy
Em                   F
somebody should have told you that
        Am       G
there's no guarantees

Scream: No guarantees
Em       F       Am
that you lose it all

when you stop dreaming
          G                     F
Nothing's going around your tops away
        G              F-Em
there's no looking back


Post Chorus 2:

Guitar 2:
     x3 this bar
e|--------------|-3--3--3--|-----------|-0--|
B|------0h1-----|-0--0--0--|-------0h1-|-0--|
G|-2-2----------|-0--0--0--|-2--2------|-0--|
D|-3-3----------|-0--0--0--|-3--3------|-2--|
A|--------------|----------|-----------|-2--|
E|--------------|----------|-----------|-0--|


Bridge:
     Dm
they tell us who to be while ignoring all our dreams
              Cm7       C         Cm7       C  G
Scream: we'll throw it away, well throw it away
    Dm
why is it they can't see we're who we want to be
              Cm7       C         Cm7       C  G
Scream: we'll throw it away, well throw it away


Guitar 2:
                x2 this bar                     x2
e|-7-----8-----7-----8-----10---8----|---------------------|
B|---8-----8-----8-----8------8---8--|---------------------|
G|-----7-----7-----7-----7-----------|---4---4---4-----5-4-|
D|-----------------------------------|-0---0---0-----------|
A|-----------------------------------|-------------3-3-----|
E|-----------------------------------|---------------------|

Guitar 3:
            x2 this bar            x2
e|-----3-----3-----3-----3-|----------------|
B|-0-1---0-1---0-1---0-1---|-0--------------|
G|-------------------------|-0-----------5--|
D|-------------------------|-2-x-x-4-x-x-5--| (x2)
A|-------------------------|-3-----5-----3--|
E|-------------------------|-------3--------|


Full Scream:
F
why can't they see

that we'll never be who they want us to be

we'll never be
Em
we have too many dreams

too many dreams, too many dreams
(Repeat)

to just throw them away


Guitar 2:
     x2
e|------0-0------0h1p0---|--------------------------0h1p0-|
B|-1-1--1-1--1-1-------1-|-1-0---1-0---1-0---1-0--1-1-----|
G|-2-2--2-2--2-2---------|-----0-----0-----0------2-2-----|
D|-3-3--3-3--3-3---------|--------------------------------| (x2)
A|-----------------------|--------------------------------|
E|-----------------------|--------------------------------|


Interlude: G-Am-F (x3) F

Scream: Throw Away!!!!

(Repeat Chorus 1 except last line and Chorus 2)

At second Repeat Of Chorus, add this riff

Guitar 2: repeat this riff until the chorus is finished
e|------------------|
B|-----5h6p6--------|
G|-7-5-------7-4p5--|
D|------------------|
A|------------------|
E|------------------|
Добавлено: 18.04.2012
Другие материалы по этой песне:
  • Аккорды и текст

Страница создана 18.04.2012
http://primanota.ru/greeley-estates/life-is-a-garden-chords.htm
Привет, Гость.
Предлагаем пройти революционный курс по гитаре.
Подарок от PrimaNota.Ru, забирай!