PrimaNota.ru - самый крупный в мире бесплатный архив песенных текстов, аккордов, табулатур и нот


Greeley Estates - Jealousy Breeds Killing Sprees - текст песни, таба, видео

Регистрация Запомнить меня
Войти через:  Facebook Google Twitter Vk Yandex Mail.ru

Greeley Estates - Jealousy Breeds Killing Sprees - текст песни, таба, видео

Печатать
Просмотров: 106
So... here's JEALOUSY BREEDS KILLING SPREES by Greeley Estates, off their new record "No 
No Rainbow". It's a pretty tight song. Some parts were told to me BY THE BAND
and some I picked up by ear. The only part I'm really not sure of is the beginning
and another part you'll see below.

99% accurate =]
Sounds great to me =]
ENJOY!!!

RATE AND COMMENT PLEASE!!!

Greeley Estates
"Jealousy Breeds Killing Sprees"
No Rain, No Rainbow

INTRO---
Guitar 1: (0:00)
|-------------------------------------------------|
|-------------------------------------------------|
|-------------------------------------------------|
|-15p12-12-15p12-12-15p12-12-15p12-12-17p12-15p12-|
|-------------------------------------------------|
|-------------------------------------------------|

(0:02)
|-------------------------------------------------|
|-------------------------------------------------|
|-------------------------------------------------|
|-14p11-11-14p11-11-14p11-14p11-11-14p11-11-14p11-|
|-------------------------------------------------|
|-------------------------------------------------|

(0:05)
|-------------------------------------------------|
|-------------------------------------------------|
|-------------------------------------------------|
|-15p12-12-15p12-12-15p12-12-15p12-12-17p12-15p12-|
|-------------------------------------------------|
|-------------------------------------------------|

(0:07)
|----------------------------------------------|
|----------------------------------------------|
|-------------------------12tp----12tp----12tp-|
|-14p11-11-14p11-11-14p11------11------11------|
|----------------------------------------------|
|----------------------------------------------|

Guitar 2:
(0:00)
|-------------------------------------------------|
|-------------------------------------------------|
|-14p10-10-14p10-10-14p10-10-14p10-10-15p10-14p10-|
|-------------------------------------------------|
|-------------------------------------------------|
|-------------------------------------------------|

(0:02)
|---------------------------------------|
|---------------------------------------|
|-12p9-9-12p9-9-12p9-12p9-9-12p9-9-12p9-|
|---------------------------------------|
|---------------------------------------|
|---------------------------------------|

(0:05)
|-------------------------------------------------|
|-------------------------------------------------|
|-14p10-10-14p10-10-14p10-10-14p10-10-15p10-14p10-|
|-------------------------------------------------|
|-------------------------------------------------|
|-------------------------------------------------|

(0:07)
|-----------------------------------------|
|-----------------------------------------|
|-12p9-9-12p9-9-12p9-12tp----12tp----12tp-|
|-------------------------11------11------|
|-----------------------------------------|
|-----------------------------------------|


VERSE 1---
Both guitars:
(0:10)
"Well everybody knows..."
|---------------------------------|
|---------------------------------|
|---------------------------------|
|---------------------------------|
|-8-4-0-----------000-000-000-000-|
|-------8-4-0-0-0-000-000-000-000-|
                  ... ... ... ...

(0:12)
"what I'm holding here..."
|---------------------------------|
|---------------------------------|
|---------------------------------|
|---------------------------------|
|-8-4-0-----------000000000-0-4-7-|
|-------8-4-0-0-0-000000000-------|
                  .........

(0:15)
"Tell all your friends to get..."
|---------------------------------|
|---------------------------------|
|---------------------------------|
|---------------------------------|
|-8-4-0-----------000-000-000-000-|
|-------8-4-0-0-0-000-000-000-000-|
                  ... ... ... ...

(0:18)
"down on the ground..."
|---------------------------------|
|---------------------------------|
|---------------------------------|
|---------------------------------|
|-8-4-0-----------000000000-0-4-7-|
|-------8-4-0-0-0-000000000-------|
                  .........

(0:20)
"Cuz I'll point this barrel..."
|---------------------------------|
|---------------------------------|
|---------------------------------|
|---------------------------------|
|-8-4-0-----------000-000-000-000-|
|-------8-4-0-0-0-000-000-000-000-|
                  ... ... ... ...

(0:23)
"at any one of their heads..."
|---------------------------------|
|---------------------------------|
|---------------------------------|
|---------------------------------|
|-8-4-0-----------000000000-0-4-7-|
|-------8-4-0-0-0-000000000-------|
                  .........

(0:26)
"Tell all your friends to stay..."
|---------------------------------|
|---------------------------------|
|---------------------------------|
|---------------------------------|
|-8-4-0-----------000-000-000-000-|
|-------8-4-0-0-0-000-000-000-000-|
                  ... ... ... ...

(0:28)
"down on the ground..."
|---------------------------------|
|---------------------------------|
|---------------------------------|
|---------------------------------|
|-8-4-0-----------000000000-------|
|-------8-4-0-0-0-000000000-10//--|
                  .........

CHORUS THINGY---
(NOTE: Can't figure out the lead in the background, so here are the chords that you can play.)
Guitar 2: (0:31)
"Oh baby, baby, I'm..."
|---------------------------------|
|---------------------------------|
|---------------------------------|
|-5-5-5-5-5-5-5-5-5-5-5-5-5-8-8-8-|
|-5-5-5-5-5-5-5-5-5-5-5-5-5-8-8-8-|
|-5-5-5-5-5-5-5-5-5-5-5-5-5-8-8-8-|

(0:33)
"I'm screwed up so bad..."
|---------------------------------|
|---------------------------------|
|---------------------------------|
|-7-7-7-7-7-7-7-7-7-7-7-7-7-7-7-7-|
|-7-7-7-7-7-7-7-7-7-7-7-7-7-7-7-7-|
|-7-7-7-7-7-7-7-7-7-7-7-7-7-7-7-7-|

(0:36)
"Come back, come back, will you come..."
|---------------------------------|
|---------------------------------|
|---------------------------------|
|-5-5-5-5-5-5-5-5-5-5-5-5-5-8-8-8-|
|-5-5-5-5-5-5-5-5-5-5-5-5-5-8-8-8-|
|-5-5-5-5-5-5-5-5-5-5-5-5-5-8-8-8-|

(0:39)
"back to me..."
|---------------------------------|
|---------------------------------|
|---------------------------------|
|-7-7-7-7-7-7-7-7-7-7-7-7-7-7-7-7-|
|-7-7-7-7-7-7-7-7-7-7-7-7-7-7-7-7-|
|-7-7-7-7-7-7-7-7-7-7-7-7-7-7-7-7-|


POST CHORUS 1---
Both guitars: (0:42)
"Yeah, you know, you know..."
|---------------------------------|
|---------------------------------|
|---------------------------------|
|---------------------------------|
|-000-0-000-0-000-0-000-0-8-4-----|
|-000-0-000-0-000-0-000-0-----7-3-|
  ... . ... . ... . ... .

(0:44)
"that I'll treat you so right..."
|---------------------------------|
|---------------------------------|
|---------------------------------|
|-0-0-000-0-000-0-000-0-0-8-4-----|
|-0-0-000-0-000-0-000-0-0-----7-3-|
  . . ... . ... . ... . .

(0:47)
"Tell all your friends to stay..."
|---------------------------------|
|---------------------------------|
|---------------------------------|
|---------------------------------|
|-0-000-0-000-0-000-0-000-8-4-----|
|-0-000-0-000-0-000-0-000-----7-3-|
  . ... . ... . ... . ...

(0:49)
"down on the ground..."
|---------------------------------|
|---------------------------------|
|---------------------------------|
|---------------------------------|
|-000-0-000-0-000-0-000-0-8-4-----|
|-000-0-000-0-000-0-000-0-----7-3-|
  ... . ... . ... . ... .

CHORUS THINGY 2---
Guitar 1: (0:52)
"It's loaded, I promise..."
|---------------------------------|
|---------------------------------|
|-7-7-7-7-7-7-7-7-7-7-7-7-7-7-7-7-|
|-x-x-x-x-x-x-x-x-x-x-x-x-x-x-x-x-|
|-5-5-5-5-5-5-5-5-5-5-5-5-5-5-5-5-|
|---------------------------------|

(0:54)
"anybody wanna try and test me?..."
|---------------------------------|
|---------------------------------|
|-6-6-6-6-6-6-6-6-6-6-6-6-6-6-6-6-|
|-x-x-x-x-x-x-x-x-x-x-x-x-x-x-x-x-|
|-4-4-4-4-4-4-4-4-4-4-4-4-4-4-4-4-|
|---------------------------------|

(0:57)
"It's loaded, it's loaded..."
|---------------------------------|
|---------------------------------|
|-7-7-7-7-7-7-7-7-7-7-7-7-7-7-7-7-|
|-x-x-x-x-x-x-x-x-x-x-x-x-x-x-x-x-|
|-5-5-5-5-5-5-5-5-5-5-5-5-5-5-5-5-|
|---------------------------------|

(1:00)
"If you don't believe me then I'll make sure you see..."
[tremolo picked]
|-----------------------------------------|
|-----------------------------------------|
|-----------------------------------------|
|-----------------------------------------|
|-----------------------------------------|
|-11-11-11-11-11-11-11-11-8-8-8-8-8-8-8-8-|

Guitar 2:
(0:52)
|-------------------------------------------------|
|-------------------------------------------------|
|-10-10-10-10-10-10-10-10-10-10-10-10-10-10-10-10-|
|--x--x--x--x--x--x--x--x--x--x--x--x--x--x--x--x-|
|--8--8--8--8--8--8--8--8--8--8--8--8--8--8--8--8-|
|-------------------------------------------------|

(0:54)
|---------------------------------|
|---------------------------------|
|-9-9-9-9-9-9-9-9-9-9-9-9-9-9-9-9-|
|-x-x-x-x-x-x-x-x-x-x-x-x-x-x-x-x-|
|-7-7-7-7-7-7-7-7-7-7-7-7-7-7-7-7-|
|---------------------------------|

(0:57)
|-------------------------------------------------|
|-------------------------------------------------|
|-10-10-10-10-10-10-10-10-10-10-10-10-10-10-10-10-|
|--x--x--x--x--x--x--x--x--x--x--x--x--x--x--x--x-|
|--8--8--8--8--8--8--8--8--8--8--8--8--8--8--8--8-|
|-------------------------------------------------|

(1:00)
[tremolo picked]
|-------------------------------------------------|
|-------------------------------------------------|
|-------------------------------------------------|
|-------------------------------------------------|
|-------------------------------------------------|
|-14-14-14-14-14-14-14-14-11-11-11-11-11-11-11-11-|

VERSE 2---
Both guitars: (1:03)
"Last chance..."
|---------------------------------|
|---------------------------------|
|---------------------------------|
|---------------------------------|
|-8-4-0-----------000-000-000-000-|
|-------8-4-0-0-0-000-000-000-000-|
                  ... ... ... ...

(1:05)
"to make up your mind..."
|---------------------------------|
|---------------------------------|
|---------------------------------|
|---------------------------------|
|-8-4-0-----------000000000-0-4-7-|
|-------8-4-0-0-0-000000000-------|
                  .........

(1:08)
"You better think it through..."
|---------------------------------|
|---------------------------------|
|---------------------------------|
|---------------------------------|
|-8-4-0-----------000-000-000-000-|
|-------8-4-0-0-0-000-000-000-000-|
                  ... ... ... ...

(1:10)
"your life's on the line..."
|---------------------------------|
|---------------------------------|
|---------------------------------|
|---------------------------------|
|-8-4-0-----------000000000-0-4-7-|
|-------8-4-0-0-0-000000000-------|
                  .........

(1:13)
"Tell all your friends I'm not..."
|---------------------------------|
|---------------------------------|
|---------------------------------|
|---------------------------------|
|-8-4-0-----------000-000-000-000-|
|-------8-4-0-0-0-000-000-000-000-|
                  ... ... ... ...

(1:16)
"fooling around..."
|---------------------------------|
|---------------------------------|
|---------------------------------|
|---------------------------------|
|-8-4-0-----------000000000-0-4-7-|
|-------8-4-0-0-0-000000000-------|
                  .........

(1:18)
"Tell all your friends to stay..."
|---------------------------------|
|---------------------------------|
|---------------------------------|
|---------------------------------|
|-8-4-0-----------000-000-000-000-|
|-------8-4-0-0-0-000-000-000-000-|
                  ... ... ... ...

(1:21)
"down on the ground..."
|---------------------------------|
|---------------------------------|
|---------------------------------|
|---------------------------------|
|-8-4-0-----------000000000-0-4-7-|
|-------8-4-0-0-0-000000000-------|
                  .........


CHORUS THINGY---
(repeat)
(1:24-1:34)

POST CHORUS---
Both guitars: (1:34)
"Oh..."
|---------------------------------|
|---------------------------------|
|---------------------------------|
|---------------------------------|
|-000-0-000-0-000-0-000-0-8-4-----|
|-000-0-000-0-000-0-000-0-----7-3-|
  ... . ... . ... . ... .

(1:37)
"I brought this gun for..."
|---------------------------------|
|---------------------------------|
|---------------------------------|
|-0-0-000-0-000-0-000-0-0-8-4-----|
|-0-0-000-0-000-0-000-0-0-----7-3-|
  . . ... . ... . ... . .

(1:39)
"You..."
|---------------------------------|
|---------------------------------|
|---------------------------------|
|---------------------------------|
|-0-000-0-000-0-000-0-000-8-4-----|
|-0-000-0-000-0-000-0-000-----7-3-|
  . ... . ... . ... . ...

(1:42)
"for you..."
|---------------------------------|
|---------------------------------|
|---------------------------------|
|---------------------------------|
|-000-0-000-0-000-0-000-0-8-4-----|
|-000-0-000-0-000-0-000-0-----7-3-|
  ... . ... . ... . ... .


CHORUS THINGY 2---
(repeat)
(1:44-1:54)


INTRO---
(repeat)
(1:54-2:05)
"It's so simple, I'm not that bad...
Just love me, love me, that's all that I..."


Now the massive ass motherfuckin breakdown.
Broken down into many parts.

BREAKDOWN PART 1---
"ask..."
[let ring from 2:05-2:24]
Guitar 1:
|---------------------------------|
|---------------------------------|
|---------------------------------|
|-0~~~~---------------------------|
|-0~~~~---------------------------|
|-0~~~~---------------------------|

Guitar 2:
|---------------------------------|
|---------------------------------|
|---------------------------------|
|-3v~~~---------------------------|
|-0~~~~---------------------------|
|-0~~~~---------------------------|

BREAKDOWN PART 2---
Guitar 1:
(2:24)
"I like to think about what could've been..."
|----------------------------------|
|----------------------------------|
|----------------------------------|
|----------------------------------|
|-00000~-000~-00000~-000~-0000000~-|
|-00000~-000~-00000~-000~-0000000~-|
  .....  ...  .....  ...  .......

(2:28)
"I like to think about having you back..."
|----------------------------------|
|----------------------------------|
|----------------------------------|
|----------------------------------|
|-00000~-000~-00000~-000~-0000000~-|
|-00000~-000~-00000~-000~-0000000~-|
  .....  ...  .....  ...  .......

(2:32)
"I like to think about what could've been..."
|----------------------------------|
|----------------------------------|
|----------------------------------|
|----------------------------------|
|-00000~-000~-00000~-000~-0000000~-|
|-00000~-000~-00000~-000~-0000000~-|
  .....  ...  .....  ...  .......

(2:35)
"before all this bloodshed began..."
|----------------------------------|
|----------------------------------|
|----------------------------------|
|----------------------------------|
|-00000~-000~-00000~-000~-0000000~-|
|-00000~-000~-00000~-000~-0000000~-|
  .....  ...  .....  ...  .......

Guitar 2:
(2:24)
|----------------------------------|
|----------------------------------|
|----------------------------------|
|----------------------------------|
|-00000~-000~-00000~-000~-0000000~-|
|-00000~-000~-00000~-000~-0000000~-|
  .....  ...  .....  ...  .......

(2:28)
|----------------------------------|
|----------------------------------|
|----------------------------------|
|----------------------------------|
|-00000~-000~-00000~-000~-0000000~-|
|-00000~-000~-00000~-000~-0000000~-|
  .....  ...  .....  ...  .......

(2:32-2:38)
some lead part I can't figure out yet but STAY TUNED i'll have it soon enough!!

BREAKDOWN PART 3---
Guitar 2:
(2:38-2:40)
|---------------------------------|
|---------------------------------|
|---------------------------------|
|-3~~~----------------------------|
|---------------------------------|
|------0-10//0--------------------|

BREAKDOWN PART 4---
Guitar 1:
[Guitar 2 continues to do its lead thing]
(2:40)
"I like to think about what could've been..."
|----------------------------------|
|----------------------------------|
|----------------------------------|
|----------------------------------|
|-00000~-000~-00000~-000~-0000000~-|
|-00000~-000~-00000~-000~-0000000~-|
  .....  ...  .....  ...  .......

(2:44)
"I like to think about having you back..."
|----------------------------------|
|----------------------------------|
|----------------------------------|
|----------------------------------|
|-00000~-000~-00000~-000~-0000000~-|
|-00000~-000~-00000~-000~-0000000~-|
  .....  ...  .....  ...  .......

BREAKDOWN PART 5---
Guitar 1:
(2:48)
"Oh baby, baby, I... I'm screwed up so bad..."
|----------------------------------|
|----------------------------------|
|----------------------------------|
|-1~~~~---------8~~~~-----7~~~~----|
|----------------------------------|
|----------------------------------|

(2:56)
"Come back, come back, will you come back to me?"
|----------------------------------|
|----------------------------------|
|----------------------------------|
|-1~~~~---------8~~~~-----7~~~~----|
|----------------------------------|
|----------------------------------|

Guitar 2:
(2:48)
[tremolo picked]
|-------------------------------------------------|
|-------------------------------------------------|
|-------------------------------------------------|
|-------------------------------------------------|
|-------------------------------------------------|
|-10-10-10-10-10-10-10-10-17-17-17-17-16-16-16-16-|

|-------------------------------------------------|
|-------------------------------------------------|
|-------------------------------------------------|
|-------------------------------------------------|
|-------------------------------------------------|
|-10-10-10-10-10-10-10-10-17-17-17-17-16-16-16-16-|

BREAKDOWN PART 6---
Both guitars:
(3:04)
"I like to think about what could have been..."
|----------------------------------|
|----------------------------------|
|----------------------------------|
|----------------------------------|
|-00000~-000~-00000~-000~-0000000~-|
|-00000~-000~-00000~-000~-0000000~-|
  .....  ...  .....  ...  .......

(3:08)
"I like to think about having you back..."
|----------------------------------|
|----------------------------------|
|----------------------------------|
|----------------------------------|
|-00000~-000~-00000~-000~-0000000~-|
|-00000~-000~-00000~-000~-0000000~-|
  .....  ...  .....  ...  .......

(3:11)
"I like to think about what could have been..."
|----------------------------------|
|----------------------------------|
|----------------------------------|
|----------------------------------|
|-00000~-000~-00000~-000~-0000000~-|
|-00000~-000~-00000~-000~-0000000~-|
  .....  ...  .....  ...  .......

(3:15)
"Before all this bloodshed began."
|---------------------------------|
|---------------------------------|
|---------------------------------|
|---------------------------------|
|-00000~-000~-00000~-000~-0000000-|
|-00000~-000~-00000~-000~-0000000-|
  .....  ...  .....  ...  .......


ENJOY FUCKERS!!!
RATE AND COMMENT PLEASE!!!
Добавлено: 22.07.2012
Другие материалы по этой песне:
  • Аккорды и текст

Страница создана 22.07.2012
http://primanota.ru/greeley-estates/jealousy-breeds-killing-sprees-chords.htm
Привет, Гость.
Предлагаем пройти революционный курс по гитаре.
Подарок от PrimaNota.Ru, забирай!