PrimaNota.ru - самый крупный в мире бесплатный архив песенных текстов, аккордов, табулатур и нот


Greeley Estates - I Shot The Maid - таба, видео

Регистрация Запомнить меня
Войти через:  Facebook Google Twitter Vk Yandex Mail.ru

Greeley Estates - I Shot The Maid - таба, видео

Печатать
Просмотров: 110
Personally this is my favorite song off of "No Rain, No Rainbow." It's intense, jumpy
frenetic. It should be 99% accurate... it's just that the Guitar 2 part during the verses
a little hard to pick up... but we only care about Guitar 1 right? And during the 
there's some complicated rhythms so the number of strums may or may not be right but
sure you'll figure them out :P. ENJOY!! Comments and ratings are greatly appreciated =].

**UPDATED 4/19/10**
--fixed Guitar 2 Verse harmony by a shitload!

Greeley Estates
"I Shot the Maid"
No Rain, No Rainbow

INTRO/CHORUS---
Guitar 1:
(0:00)
|-----------------------------------------------------------------|
|-----------------------------------------------------------------|
|-7-7-7-7-7-7-7-7-6-6-6-6-6-6-6-6-5-5-5-5-5-5-5-5-----------------|
|-x-x-x-x-x-x-x-x-x-x-x-x-x-x-x-x-x-x-x-x-x-x-x-x-6-6-6-6-6-6-6-6-|
|-5-5-5-5-5-5-5-5-4-4-4-4-4-4-4-4-3-3-3-3-3-3-3-3-6-6-6-6-6-6-6-6-|
|-------------------------------------------------6-6-6-6-6-6-6-6-|

(0:05)
|-----------------------------------------------------------------|
|-----------------------------------------------------------------|
|-7-7-7-7-7-7-7-7-6-6-6-6-6-6-6-6-5-5-5-5-5-5-5-5-----------------|
|-x-x-x-x-x-x-x-x-x-x-x-x-x-x-x-x-x-x-x-x-x-x-x-x-6-6-6-6-6-6-6-6-|
|-5-5-5-5-5-5-5-5-4-4-4-4-4-4-4-4-3-3-3-3-3-3-3-3-6-6-6-6-6-6-6-6-|
|-------------------------------------------------6-6-6-6-6-6-6-6-|

Guitar 2:
(0:00)
|-----------------------------------------------------------------|
|-6-6-6-6-6-6-6-6-6-6-6-6-6-6-6-6-6-6-6-6-6-6-6-6-3-3-3-3-3-3-3-3-|
|-x-x-x-x-x-x-x-x-x-x-x-x-x-x-x-x-x-x-x-x-x-x-x-x-x-x-x-x-x-x-x-x-|
|-3-3-3-3-3-3-3-3-3-3-3-3-3-3-3-3-3-3-3-3-3-3-3-3-0-0-0-0-0-0-0-0-|
|-----------------------------------------------------------------|
|-----------------------------------------------------------------|

(0:05)
|-----------------------------------------------------------------|
|-6-6-6-6-6-6-6-6-6-6-6-6-6-6-6-6-6-6-6-6-6-6-6-6-3-3-3-3-3-3-3-3-|
|-x-x-x-x-x-x-x-x-x-x-x-x-x-x-x-x-x-x-x-x-x-x-x-x-x-x-x-x-x-x-x-x-|
|-3-3-3-3-3-3-3-3-3-3-3-3-3-3-3-3-3-3-3-3-3-3-3-3-0-0-0-0-0-0-0-0-|
|-----------------------------------------------------------------|
|-----------------------------------------------------------------|

VERSE 1 Part 1--- [Guitar 1 only]
Guitar 1:
(0:10)
"I can't believe I've..."
|---------------------------------|
|---------------------------------|
|---------------------------------|
|---------------------------------|
|-----3-0-6-0---3-------6-------3-|
|-0-4---------4---0-0-0---0-4-0---|
                  . . .   .   .

(0:13)
"done this horrible thing..."
|---------------------------------|
|---------------------------------|
|---------------------------------|
|---------------------------------|
|-----3-0-6-0---3---6-------3---2-|
|-0-4---------4---0---0-4-0---0---|
                  .   .   .   .

(0:15)
"I shot the maid, what..."
|---------------------------------|
|---------------------------------|
|---------------------------------|
|---------------------------------|
|-----3-0-6-0---3-------6-------3-|
|-0-4---------4---0-0-0---0-4-0---|
                  . . .   .   .

(0:18)
"more can I say?..."
|---------------------|
|---------------------|
|---------------------|
|---------------------|
|-----3-0-6-0---3-----|
|-0-4---------4---2\\-| <-- whammy bar down
                    \\
                     \\

VERSE 1 Part 2---
Guitar 1:
(0:20)
"It's all a blur..."
|---------------------------------|
|---------------------------------|
|---------------------------------|
|---------------------------------|
|-----3-0-6-0---3-------6-------3-|
|-0-4---------4---0-0-0---0-4-0---|
                  . . .   .   .

(0:23)
"remembering what went down..."
|---------------------------------|
|---------------------------------|
|---------------------------------|
|---------------------------------|
|-----3-0-6-0---3---6-------3---2-|
|-0-4---------4---0---0-4-0---0---|
                  .   .   .   .

(0:26)
"I swear, I swear, I thought she was..."
|---------------------------------|
|---------------------------------|
|---------------------------------|
|---------------------------------|
|-----3-0-6-0---3-------6-------3-|
|-0-4---------4---0-0-0---0-4-0---|
                  . . .   .   .

(0:28)
"somebody else..."
|---------------------------------|
|---------------------------------|
|---------------------------------|
|---------------------------------|
|-----3-0-6-0---3---6-------3---2-|
|-0-4---------4---0---0-4-0---0---|
                  .   .   .   .

Guitar 2:
[NOTE: Still probably isn't totally correct, but better than it was before!]
(0:20)
|-----------------------------------|
|-----------------------------------|
|-----------------------------------|
|-----------------------------------|
|-----7---10-----7-------11-------7-|
|-0-8---8----7-8---0-0-0----0-8-0---|
                   . . .    .   .

(0:23)
|-----------------------------------|
|-----------------------------------|
|-----------------------------------|
|-----------------------------------|
|-----7---10---8-7---11-------7---5-|
|-0-8---8----0-----0----0-8-0---0---|
                   .    .   .   .

(0:26)
|-----------------------------------|
|-----------------------------------|
|-----------------------------------|
|-----------------------------------|
|-----7---10-----7-------11-------7-|
|-0-8---8----7-8---0-0-0----0-8-0---|
                   . . .    .   .

(0:28)
|-----------------------------------|
|-----------------------------------|
|-----------------------------------|
|-----------------------------------|
|-----7---10---8-7---11-------7---5-|
|-0-8---8----0-----0----0-8-0---0---|
                   .    .   .   .


PRECHORUS---
Guitar 1:
(0:31)
"It's time to..."
|-------------------------------------------------|
|-------------------------------------------------|
|-------------------------------------------------|
|-------------------------------------------------|
|-------------------------------------------------|
|-6-6-6-6-6-6-6-6-6-6-6-6-2-2-2-2-2-2-2-2-2-2-2-2-|

(0:33)
"think, fast..."
|------------------------------|
|------------------------------|
|------------------------------|
|------------------------------|
|-0-0-0-0-6-0---2-00000000-0-0-|
|-0-0-0-------4---00000000-0-0-|
  . . .           ........ . .

(0:36)
"What do you do?..."
|------------------------------------------|
|------------------------------------------|
|------------------------------------------|
|------------------------------------------|
|-----2-----3-0-0-0-----2-------------0000-|
|-0-4---0-4---0-0-0-0-4---0-0-0-0-0-0-0000-|
  . .   . .   . . . . .   . . . . . . ....

(0:38)
"Think, fast..."
|-----------------------------------|
|-----------------------------------|
|-----------------------------------|
|-----------------------------------|
|-000000-0-6-0---2-0-0-0-0-00000000-|
|-000000-------4---0-0-0-0-00000000-|
  ......           . . . . ........

(0:41)
"on this..."
|----------------------------------|
|----------------------------------|
|----------------------------------|
|----------------------------------|
|-----3-0-0-0-----2-0-0-0-00000000-|
|-0-4---0-0-0-0-4---0-0-0-00000000-|
  . .   . . . . .   . . . ........

(0:44)
"murder, murder..."
|------------------------------|
|------------------------------|
|------------------------------|
|------------------------------|
|-0-0-0-0-6-0---2-00000000-0-0-|
|-0-0-0-------4---00000000-0-0-|
  . . .           ........ . .

(0:46)
"What have you done..."
|------------------------------------------|
|------------------------------------------|
|------------------------------------------|
|------------------------------------------|
|-----2-----3-0-0-0-----2-------------0000-|
|-0-4---0-4---0-0-0-0-4---0-0-0-0-0-0-0000-|
  . .   . .   . . . . .   . . . . . . ....

(0:49)
"murderer, murderer?..."
|-----------------------------------|
|-----------------------------------|
|-----------------------------------|
|-----------------------------------|
|-000000-0-6-0---2-0-0-0-0-00000000-|
|-000000-------4---0-0-0-0-00000000-|
  ......           . . . . ........

(0:51)
"What have I done?..."
|----------------------------------|
|----------------------------------|
|----------------------------------|
|----------------------------------|
|-----3-0-0-0-----2-0-0-0-00000000-|
|-0-4---0-0-0-0-4---0-0-0-00000000-|
  . .   . . . . .   . . . ........

Guitar 2:
NOTE: Guitar 2 in essence just plays the open B and F# strings, so it's
really the same as Guitar 1, but without the lead notes.


CHORUS---
[repeat INTRO/CHORUS x2]
(0:54-1:14)
"I can't believe I've done this horrible thing...
I shot the maid, what more can I say?...
I killed her, it was an accident...
How will I ever clean up this mess?..."


POSTCHORUS--- [bend so you get a 6.5 sound, not a 7, same with the 2's]
Both guitars:
(1:15)
|-------------------------------------------------|
|-------------------------------------------------|
|-------------------------------------------------|
|-------------------------------------------------|
|-------------------------------------------------|
|-6-6-6-6-6-6-6-6-6-6-6-6-2-2-2-2-2-2-2-2-2-2-2-2-|


VERSE 2---
[repeat VERSE 1, except with a harder, more rapid hit in a certain area... listen and
find it]
(1:18-1:38)
"I saw her face and watched her dying breath...
I'll never, ever forget those beautiful eyes...
There's so much blood all over this place...
There's so much blood, it's on everything..."


REPEAT PRECHORUS---
(1:39-2:01)
"I'd better think fast...
What do I do?...
Think fast on this murder, murder...
What have you done, murderer, murderer?...
What have I done?..."


REPEAT INTRO/CHORUS x2---
(2:02-2:22)
"I can't believe I've done this horrible thing...
I shot the maid, what more can I say?...
I killed her, it was an accident...
How will I ever clean up this mess?..."


PREBREAKDOWN--- [bend so you get a 6.5 sound, not a 7, same with the 2's]
Both guitars:
(2:22-2:26)
"YEAH!..."
|-------------------------------------------------|
|-------------------------------------------------|
|-------------------------------------------------|
|-------------------------------------------------|
|-------------------------------------------------|
|-6-6-6-6-6-6-6-6-6-6-6-6-2-2-2-2-2-2-2-2-2-2-2-2-|


LITTLE DRUM THINGY---
(2:26-2:27)


BREAKDOWN--- [NOTE: At the 2:50 mark, only Guitar 1 plays the lead]
Both guitars:
(2:28)
"I shot the maid, what can I say?..."
|------------------------------|
|------------------------------|
|------------------------------|
|------------------------------|
|-000-0-0~-0-0~-00000-0-0-000~-|
|-111-1-1~-1-1~-11111-1-1-111~-|
  ... . .  . .  ..... . . ...

(2:31)
"I shot the maid, it was an accident..."
|-----------------------------|
|-----------------------------|
|-----------------------------|
|-----------------------------|
|-000-0-0~-0-0~-00000-0-0-000-|
|-111-1-1~-1-1~-11111-1-1-111-|
  ... . .  . .  ..... . . ...

(2:35)
"I shot the maid, what can I say?..."
|-----------------------------|
|-----------------------------|
|-----------------------------|
|-----------------------------|
|-000-0-0--0-0--00000-0-0-000-|
|-000-0-0--0-0--00000-0-0-000-|
  ... . .  . .  ..... . . ...

(2:39)
"I shot the maid, it was an accident..."
|-----------------------------|
|-----------------------------|
|-----------------------------|
|-----------------------------|
|-000-0-0--0-0--00000-0-0-000-|
|-000-0-0--0-0--00000-0-0-000-|
  ... . .  . .  ..... . . ...

(2:43)
"I shot the maid, what can I say?..."
|------------------------------|
|------------------------------|
|------------------------------|
|------------------------------|
|------------------------------|
|-000-0-0~-0-0~-00000-0-0-000~-|

(2:46)
"I shot the maid, it was an accident..."
|------------------------------|
|------------------------------|
|------------------------------|
|------------------------------|
|------------------------------|
|-000-0-0~-0-0~-00000-0-0-000~-|

(2:50)
"I shot the maid, what can I say?..."
|------------------------------|
|------------------------------|
|------------------------------|
|------------------------------|
|-0-0-0-0-6-0---2-00000000-0-0-|
|-0-0-0-------4---00000000-0-0-|
  . . .           ........ . .

(2:54)
"I shot the maid, it was an accident..."
|------------------------------------------|
|------------------------------------------|
|------------------------------------------|
|------------------------------------------|
|-----2-----3-0-0-0-----2-------------0000-|
|-0-4---0-4---0-0-0-0-4---0-0-0-0-0-0-0000-|
  . .   . .   . . . . .   . . . . . . ....

(2:58)
"I shot the maid, what can I say?..."
|-----------------------------------|
|-----------------------------------|
|-----------------------------------|
|-----------------------------------|
|-000000-0-6-0---2-0-0-0-0-00000000-|
|-000000-------4---0-0-0-0-00000000-|
  ......           . . . . ........

(3:02)
"I shot the maid, it was an accident..."
|----------------------------------|
|----------------------------------|
|----------------------------------|
|----------------------------------|
|-----3-0-0-0-----2-0-0-0-00000000-|
|-0-4---0-0-0-0-4---0-0-0-00000000-|
  . .   . . . . .   . . . ........

(3:06)
"I'm getting dizzy seeing all of this blood..."
|------------------------------|
|------------------------------|
|------------------------------|
|------------------------------|
|-0-0-0-0-6-0---2-00000000-0-0-|
|-0-0-0-------4---00000000-0-0-|
  . . .           ........ . .

(3:10)
"Will anybody believe my story?..."
|------------------------------------------|
|------------------------------------------|
|------------------------------------------|
|------------------------------------------|
|-----2-----3-0-0-0-----2-------------0000-|
|-0-4---0-4---0-0-0-0-4---0-0-0-0-0-0-0000-|
  . .   . .   . . . . .   . . . . . . ....

(3:14)
"I'm getting dizzy seeing all of this blood..."
|-----------------------------------|
|-----------------------------------|
|-----------------------------------|
|-----------------------------------|
|-000000-0-6-0---2-0-0-0-0-00000000-|
|-000000-------4---0-0-0-0-00000000-|
  ......           . . . . ........

(3:17-3:23)
"Will anybody believe my story?..."
|----------------------------------|
|----------------------------------|
|----------------------------------|
|----------------------------------|
|-----3-0-0-0-----2-0-0-0-00000000-|
|-0-4---0-0-0-0-4---0-0-0-00000000-|
  . .   . . . . .   . . . ........
Добавлено: 18.06.2012
Другие материалы по этой песне:

Страница создана 18.06.2012
http://primanota.ru/greeley-estates/i-shot-the-maid-chords.htm
Привет, Гость.
Предлагаем пройти революционный курс по гитаре.
Подарок от PrimaNota.Ru, забирай!