PrimaNota.ru - самый крупный в мире бесплатный архив песенных текстов, аккордов, табулатур и нот


Greeley Estates - Friends Are Friends For Never - текст песни, таба, видео

Регистрация Запомнить меня
Войти через:  Facebook Google Twitter Vk Yandex Mail.ru

Greeley Estates - Friends Are Friends For Never - текст песни, таба, видео

Печатать
Просмотров: 118
Another amazing song off of "No Rain, No Rainbow". Should be 99.5% accurate. Let me know 
anything need be corrected as they say (but they don't). So yeah RATE AND COMMENT!!! =]

**UPDATED 2/20/10**
--INTRO (fixed pretty much everything)
--VERSE 1 (fixed the hammer-on and pull-off notes)

Greeley Estates
"Friends Are Friends For Never"
No Rain, No Rainbow

INTRO---
Guitar 1:
(0:00)
"I'll wipe that smile right off of your face..."
|-----------------------------------------------------------|
|-----------------------------------------------------------|
|-----7p3h7--------------------7p3h7p3h7--------------------|
|-----------7h10p7-7h8p7-----------------7h10p7-7h8p7-------|
|-///--------------------7h8p7------------------------7h8p7-|
|-///-------------------------------------------------------|

(0:03)
"You'll always be nothing except for a fake..."
|------------------------------------------------------|
|------------------------------------------------------|
|-7p3h7---------------------7p3h7p3h7------------------|
|-------7h10p7-7h8p7------------------7h10p7-7h8p7-5b*-|
|--------------------7h8p7-----------------------------|
|------------------------------------------------------|


(0:07)
"I'll wipe that smile right off of your face..."
|----------------------------|
|----------------------------|
|----------------------------|
|----------------------------|
|-0000-000-0-000000-00000000-|
|-0000-000-0-000000-00000000-|
  .... ... . ...... ........

(0:10)
"I'll carve you a new one with this sharp little blade..."
|------------------------------|
|------------------------------|
|------------------------------|
|------------------------------|
|-00000-0000-0-00000-000000000-|
|-00000-0000-0-00000-000000000-|
  ..... .... . ..... .........

(0:13)
"I'll wipe that smile right off of your face..."
|--------------------------------------------------------|
|--------------------------------------------------------|
|-7p3h7---------------------7p3h7p3h7--------------------|
|-------7h10p7-7h8p7------------------7h10p7-7h8p7-------|
|--------------------7h8p7-------------------------7h8p7-|
|--------------------------------------------------------|

(0:17)
"You'll always be nothing except for a fake..."
|------------------------------------------------------------|
|------------------------------------------------------------|
|-7p3h7---------------------7p3h7p3h7------------------------|
|-------7h10p7-7h8p7------------------7h10p7-7h8p7-------0~~-|
|--------------------7h8p7-------------------------7h8p7-0~~-|
|--------------------------------------------------------0~~-|

Guitar 2:
(0:00)
|----------------------------|
|----------------------------|
|----------------------------|
|----------------------------|
|-0000-000-0-000000-00000000-|
|-0000-000-0-000000-00000000-|
  .... ... . ...... ........

(0:03)
|------------------------------|
|------------------------------|
|------------------------------|
|------------------------------|
|-00000-0000-0-00000-000000000-|
|-00000-0000-0-00000-000000000-|
  ..... .... . ..... .........

(0:07)
|----------------------------|
|----------------------------|
|----------------------------|
|----------------------------|
|-0000-000-0-000000-00000000-|
|-0000-000-0-000000-00000000-|
  .... ... . ...... ........

(0:10)
|------------------------------|
|------------------------------|
|------------------------------|
|------------------------------|
|-00000-0000-0-00000-000000000-|
|-00000-0000-0-00000-000000000-|
  ..... .... . ..... .........

(0:13)
|----------------------------|
|----------------------------|
|----------------------------|
|----------------------------|
|-0000-000-0-000000-00000000-|
|-0000-000-0-000000-00000000-|
  .... ... . ...... ........

(0:17)
|------------------------------|
|------------------------------|
|------------------------------|
|------------------------------|
|-00000-0000-0-00000-000000000-|
|-00000-0000-0-00000-000000000-|
  ..... .... . ..... .........


VERSE 1---
Both guitars:
(0:22)
"Let's hope you're not planning on..."
|----------------------------------------------|
|----------------------------------------------|
|----------------------------------------------|
|----------------------------------------------|
|--------5p0h5h8----------5p0h5h8------4p0h4h7-|
|-000000---------00000000---------0000---------|
  ......         ........         ....

(0:25)
"running away from this..."
|--------------------------------------------------|
|--------------------------------------------------|
|--------------------------------------------------|
|--------------------------------------------------|
|----------5p0h5h8-------8p0h8h12------7p0h7h10----|
|-00000000---------00000----------0000----------00-|
  ........         .....          ....          ..

(0:29)
"This is all part of it, what you get for..."
|------------------------------------------------|
|------------------------------------------------|
|------------------------------------------------|
|------------------------------------------------|
|--------5p0h5h8----------8p0h8h12------7p0h7h10-|
|-000000---------00000000----------0000----------|
  ......         ........          ....

(0:33)
"throwing us all to the pack of..."
|-------------------------------------|
|-------------------------------------|
|-------------------------------------|
|-----------------------------8~--7//-|
|----------5p0h50h8-----------8~--7//-|
|-00000000----------00000000--8~--7//-|
  ........          ........

(0:36)
"wolves..."
|----------------------------------------------|
|----------------------------------------------|
|----------------------------------------------|
|----------------------------------------------|
|--------5p0h5h8----------5p0h5h8------4p0h4h7-|
|-000000---------00000000---------0000---------|
  ......         ........         ....

(0:39)
                 "You've got the devil inside of..."
|---------------------------------------------|
|---------------------------------------------|
|---------------------------------------------|
|---------------------------------------------|
|----------5p0h5h8-------5p0h5h8------4p0h4h7-|
|-00000000---------00000---------0000---------|
  ........         .....         ....

(0:43)
"you..."
|------------------------------------------------|
|------------------------------------------------|
|------------------------------------------------|
|------------------------------------------------|
|----------5p0h5h8----------5p0h5h8------4p0h4h7-|
|-00000000---------00000000---------0000---------|
  ......           ........         ....

|-------------------------------------|
|-------------------------------------|
|-------------------------------------|
|-------------------------------------|
|----------5p0h5h8--------------------|
|-00000000---------00000000-000000-//-|
  ........         ........ ......


CHORUS---
Both guitars:
(0:50)
"You put fire to every..."
|-----------------------------------------------------------------|
|-----------------------------------------------------------------|
|-----------------------------------------------------------------|
|-----------------------------------------------------------------|
|-----------------------------------------------------------------|
|-5-5-5-5-5-5-5-5-5-5-5-5-5-5-5-5-8-8-8-8-8-8-8-8-8-8-8-8-8-8-8-8-|

(0:53)
"thing that you touch and then you walk away while it burns..."
|------------------------------------------------|
|------------------------------------------------|
|------------------------------------------------|
|---------------------------------------5b-------|
|---------------------------------0-1-5-5b-0-1-0-|
|-4-4-4-4-4-4-4-4-4-4-4-4-4-4-4-4-0-1-5-5b-0-1-0-|
                                  . . .    . . .

(0:57)
"This is... this is..."
|-----------------------------------------------------------------|
|-----------------------------------------------------------------|
|-----------------------------------------------------------------|
|-----------------------------------------------------------------|
|---------------------------------5-5-5-5-5-5-5-5-5-5-5-5-5-5-5-5-|
|-8-8-8-8-8-8-8-8-8-8-8-8-8-8-8-8---------------------------------|

(1:00)
"this is the story of your life..."
|------------------------------------------------------|
|------------------------------------------------------|
|------------------------------------------------------|
|---------------------------------------5b-------------|
|---------------------------------0-1-5-5b-0-1-0-1~-0~-|
|-7-7-7-7-7-7-7-7-7-7-7-7-7-7-7-7-0-1-5-5b-0-1-0-1~-0~-|
                                  . . .    . . .


VERSE 2---
(1:06-1:32)
[REPEAT VERSE 1!!]
"She turned your heart to black or was it there all along?
Thought we knew who you were, we were wrong.
I hope that this always weighs you down.
You've got the devil inside of you."

BREAKDOWN 1---
(1:32)
Guitar 1:
|------|
|------|
|------|
|------|
|------|
|-0000-|
  ....

Both guitars:
(1:33)
"Betrayal is only the..."
|-----------------------------|
|-----------------------------|
|-----------------------------|
|-----------------------------|
|-000000~---00000000~---00----|
|-000000~---00000000~---00-0~-|
  ......    ........    .. 

(1:36)
"the beginning of our story..."
|-----------------------------|
|-----------------------------|
|-----------------------------|
|-----------------------------|
|-000000~---00000000~---00----|
|-000000~---00000000~---00-0~-|
  ......    ........    .. 

(1:39)
"Betrayal is only the..."
|-----------------------------|
|-----------------------------|
|-----------------------------|
|-----------------------------|
|-000000~---00000000~---00----|
|-000000~---00000000~---00-0~-|
  ......    ........    .. 

(1:42)
"the beginning of this story..."
|---------------------------------|
|---------------------------------|
|---------------------------------|
|---------------------------------|
|-000000~---00000000~---00--------|
|-000000~---00000000~---00-0~--\\-|
  ......    ........    .. 

REPEAT CHORUS---
(1:47-2:02)
"You put fire to everything that you touch and then you walk away while it burns.
This is, this is, this is the story of your life."

BREAKDOWN---
Both guitars:
|----------------------------------------------------|
|----------------------------------------------------|
|----------------------------------------------------|
|---------------------------------------------3-5-1~-|
|-0-000-000-000-00-0-0000-000-----000000-0~-0-3-5-1~-|
|-0-000-000-000-00-0-0000-000-----000000-0~-0-3-5-1~-|
  . ... ... ... .. . .... ...     ......    .

|----------------------------------------|
|----------------------------------------|
|----------------------------------------|
|---------------------------0~~--8~--7//-|
|-0-0-00000-0000-0-0000-000-0~~--8~--7//-|
|-0-0-00000-0000-0-0000-000-0~~--8~--7//-|
  . . ..... .... . .... ...


VERSE 2---
(2:15)
"I'll wipe that smile right off of your face,
you'll always be nothing except for a fake..."
|----------|
|----------|
|----------|
|-0~~~~----|
|-0~~~~----|
|-0~~~~-//-|

(2:23)
"I'll wipe that smile right off of your face..."
|----------------------------|
|----------------------------|
|----------------------------|
|----------------------------|
|-0000-000-0-000000-00000000-|
|-0000-000-0-000000-00000000-|
  .... ... . ...... ........

(2:26)
"You'll always be nothing except for a fake..."
|------------------------------|
|------------------------------|
|------------------------------|
|------------------------------|
|-00000-0000-0-00000-000000000-|
|-00000-0000-0-00000-000000000-|
  ..... .... . ..... .........

"FRIENDS ARE FRIENDS...

FOR NEVER..."
(2:31)
|----------------------------|
|----------------------------|
|----------------------------|
|----------------------------|
|-0000-000-0-000000-00000000-|
|-0000-000-0-000000-00000000-|
  .... ... . ...... ........

|------------------------------|
|------------------------------|
|------------------------------|
|------------------------------|
|-00000-0000-0-00000-000000000-|
|-00000-0000-0-00000-000000000-|
  ..... .... . ..... .........


REPEAT INTRO---
(2:38-2:53)
"Betrayal is only the, the beginning of this story.
Betrayal is only the, the beginning of our story..."

REPEAT CHORUS 2X---
(2:54-3:20)
"You put fire to everything that you touch and then you walk away while it burns.
This is, this is, this is the story of your life.
You put fire to everything that you touch and then you walk away while it burns.
This is, this is, this is the story of your life..."

END WITH---
|-------|
|-------|
|-------|
|-0~~~~-|
|-0~~~~-|
|-0~~~~-|
Добавлено: 02.03.2012
Другие материалы по этой песне:

Страница создана 02.03.2012
http://primanota.ru/greeley-estates/friends-are-friends-for-never-chords.htm
Привет, Гость.
Предлагаем пройти революционный курс по гитаре.
Подарок от PrimaNota.Ru, забирай!