PrimaNota.ru - самый крупный в мире бесплатный архив песенных текстов, аккордов, табулатур и нот


Greeley Estates - Dont Look Away - текст песни, таба, бас-таба, видео

Регистрация Запомнить меня
Войти через:  Facebook Google Twitter Vk Yandex Mail.ru

Greeley Estates - Dont Look Away - текст песни, таба, бас-таба, видео

Печатать
Просмотров: 177
-------------------------------------------------------------------------------
                             Don't Look Away - Greeley Estates
-------------------------------------------------------------------------------
Tabbed by:Tanner Menzel
Email:xatomdoesntlie@hotmail.com

I noticed that this song wasn't on the site so i had enough time to figure this
much out. i'll put the rest on here another time.

Tuning:Drop D

e|---------------------------------------------------------------------------|
B|-----0-------0-----------------0-------0-----------------------------------|
G|---0---0---0---0-------------0---0---0---0---------------------------------|
D|-2-------2---------4-5-4---2-------2-------0-------------------------------|
A|----------------------------------------------0---2-0---0------------------|
E|------------------------------------------------4-----4---4----------------|



| /  slide up
| \  slide down
| h  hammer-on
| p  pull-off
| ~  vibrato
| +  harmonic
| x  Mute note
===============================================================================
Добавлено: 22.03.2012
Другие материалы по этой песне:
  • Аккорды и текст

Страница создана 22.03.2012
http://primanota.ru/greeley-estates/dont-look-away-chords.htm
Привет, Гость.
Предлагаем пройти революционный курс по гитаре.
Подарок от PrimaNota.Ru, забирай!