PrimaNota.ru - самый крупный в мире бесплатный архив песенных текстов, аккордов, табулатур и нот


Greeley Estates - Desperate Times Call For Deseperate Housewives - таба

Регистрация Запомнить меня
Войти через:  Facebook Google Twitter Vk Yandex Mail.ru

Greeley Estates - Desperate Times Call For Deseperate Housewives - таба

Печатать
Просмотров: 100
-------------------------------------------------------------------------------
                             Deseperate... - Greeley Estates
-------------------------------------------------------------------------------
Email:pansy_screamo@hotmail.com

Tuning:Drop C

Not 100% correct but o well nobody has posted it and this is
how i play it... Just wanted to share it

Intro
e|-----------------------------------------|
B|-----------------------------------------|
G|-----------------------------------------|X3
D|--2222222222244455555555555222211222-----|check for correct strumming
A|--2222222222244455555555555222211222-----|
E|--2222222222244455555555555222211222-----|
      ...  . ..                ... . .


Verse
e|----------------------------------------|
B|----------------------------------------|
G|----------------------------------------|
D|----------------------------------------|
A|---000000-0-0-0-00000-0-0-0-00000-00----|
E|---000000-0-0-0-00000-0-0-0-00000-00----|
     ...... . . . ..... . . . ..... ..

Chorus
e|--------------------------|-------------------------------------------------|
B|-----first time-----------|-------------------------------------------------|
G|--99999910101010107777777-|---99-9--99-991010--1010--1010101077--7-7--777---|repeat only second
D|--XXXXXX-X-X-X-X-XXXXXXXX-|---XX-X--XX-XX-X-X---X-X---X-X-X-XXX--X-X--XXX---|part
A|--777777-8-8-8-8-85555555-|---77070077077-8-800-8-800-808-8-8550050500555---|(think 4 times)
E|--------------------------|-----0-00--0------00----00--0-------00-0-00------|
                                  . ..  .      ..    ..  .       .. . ..
Intro
e|-----------------------------------------|
B|-----------------------------------------|
G|-----------------------------------------|X3
D|--2222222222244455555555555222211222-----|check for correct strumming
A|--2222222222244455555555555222211222-----|
E|--2222222222244455555555555222211222-----|
      ...  . ..                ... . .

Verse
e|----------------------------------------|
B|----------------------------------------|
G|----------------------------------------|
D|----------------------------------------|
A|---000000-0-0-0-00000-0-0-0-00000-00----|
E|---000000-0-0-0-00000-0-0-0-00000-00----|
     ...... . . . ..... . . . ..... ..

Chorus
e|--------------------------|-------------------------------------------------|
B|-----first time-----------|-------------------------------------------------|
G|--99999910101010107777777-|---99-9--99-991010--1010--1010101077--7-7--777---|repeat only second
D|--XXXXXX-X-X-X-X-XXXXXXXX-|---XX-X--XX-XX-X-X---X-X---X-X-X-XXX--X-X--XXX---|part
A|--777777-8-8-8-8-85555555-|---77070077077-8-800-8-800-808-8-8550050500555---|(think 4 times)
E|--------------------------|-----0-00--0------00----00--0-------00-0-00------|
                                  . ..  .      ..    ..  .       .. . ..
Verse
e|----------------------------------------|
B|----------------------------------------|
G|----------------------------------------|
D|----------------------------------------|
A|---000000-0-0-0-00000-0-0-0-00000-00----|
E|---000000-0-0-0-00000-0-0-0-00000-00----|
     ...... . . . ..... . . . ..... ..

Interlude
e|--------------------------------------------|
B|--------------------------------------------|
G|--------------------------------------------|
D|-0~--------repeat this part-----------------|
A|-0~-----------------------------------------|
E|-0~------5-8-5-8-55555-8-5-8---8-5-8-5-8----|
                   ....

Breakdown!
e|------------------------------------------------------|
B|------------------------------------------------------|
G|------------------------------------------------------|
D|--------------------------------------------------0~--|
A|--0000-00-00-00000-0-00-00000-00-00000-000-0000---0~--|
E|--0000-00-00-00000-0-00-00000-00-00000-000-0000---0~--|
    .... .. .. ..... . .. ..... .. ..... ... ....

Chorus
e|--------------------------|-------------------------------------------------|
B|-----first time-----------|-------------------------------------------------|
G|--99999910101010107777777-|---99-9--99-991010--1010--1010101077--7-7--777---|repeat only second
D|--XXXXXX-X-X-X-X-XXXXXXXX-|---XX-X--XX-XX-X-X---X-X---X-X-X-XXX--X-X--XXX---|part
A|--777777-8-8-8-8-85555555-|---77070077077-8-800-8-800-808-8-8550050500555---|(think 4 times)
E|--------------------------|-----0-00--0------00----00--0-------00-0-00------|
                                  . ..  .      ..    ..  .       .. . ..

e|---------|
B|---------|
G|---------|
D|--00-----|
A|--00-----|
E|--00-----|
    ..

| .  P.M
| /  slide up
| \  slide down
| h  hammer-on
| p  pull-off
| ~  Let Ring
| +  harmonic
| x  Mute note
===============================================================================
Добавлено: 09.04.2012
Другие материалы по этой песне:
  • Аккорды и текст

Страница создана 09.04.2012
http://primanota.ru/greeley-estates/desperate-times-call-for-deseperate-housewives-chords.htm
Привет, Гость.
Предлагаем пройти революционный курс по гитаре.
Подарок от PrimaNota.Ru, забирай!