PrimaNota.ru - самый крупный в мире бесплатный архив песенных текстов, аккордов, табулатур и нот


Greeley Estates - Blue Morning - таба, видео

Регистрация Запомнить меня
Войти через:  Facebook Google Twitter Vk Yandex Mail.ru

Greeley Estates - Blue Morning - таба, видео

Печатать
Просмотров: 144
----------------------------------------------------------------------------
                             Blue Morning - Greeley Estates
----------------------------------------------------------------------------
Tabbed by:BrandonR
Email:brandonr116@hotmail.com

Tuning: drop C (CGCFAD)

I tabbed this song from the video off of their myspace
I hope you like it. I tabbed it the best I could. Some parts were a little hard to hear 
I only tabbed out one guitar
Any corrections are greatly appreciated. =)

intro :00-:29
D|----part1-------|---------part2-----------|--------------------|
A|-----11---------|-------------------------|--------------------|
F|-----14---------|-------------------------|second-time-through-|
C|-------------x3-|-------7-8-7-5h7---x2----|play-part2-twice----|
G|-0-0------------|-5-7-8-------------------|--------------------|
C|-0-0------------|-------------------------|--------------------|

verse :30-:50
D|----listen to the song for the strumming-----------------------|
A|---------------------------------------------------------------|
F|------10-9-12-9-------6-6-------6-6-------10-9-12-9--10-12-9---|
C|-------------------------------------------------------------x2|
G|-0-0-0-8-7-10-7-0-0-0-4-4-0-0-0-4-4--0-0-0-8-7-10-7---8-10-7---|
C|-0-0-0----------0-0-0-----0-0-0------0-0-0----------------=----|

chorus :51-1:13
D|----part1-------|---------part2-----------|--------------------|
A|-----11---------|-------------------------|--------------------|
F|-----14---------|-------------------------|second-time-through-|
C|-------------x3-|-------7-8-7-5h7---x2----|play-part2-twice----|
G|-0-0------------|-5-7-8-------------------|--------------------|
C|-0-0------------|-------------------------|--------------------|

verse 1:14-1:1:38
D|----listen to the song for the strumming-------------------------------|
A|-----------------------------------------------------------------------|
F|------10-9-12-9-------6-6-------6-6-------10-9-12-9--10-12-9----10-12-9|
C|-------------------------------------------------------------x2--------|
G|-0-0-0-8-7-10-7-0-0-0-4-4-0-0-0-4-4--0-0-0-8-7-10-7---8-10-7-----8-10-7|
C|-0-0-0----------0-0-0-----0-0-0------0-0-0----------------=------------|

1:39-1:48
D|---------------------------|
A|----follow-rythem----------|
F|-------------------10-12-9-|
C|---------------------------|
G|-00-00-0-00-00-0-00-8-10-7-|
C|-00-00-0-00-00-0-00--------|

1:49-2:13
D|------------------follow rythem--------------------------------------|
A|------------------------second-time-through-has-a-slower-tempo-------|
F|-----------10-12/9-----------10-12/9-----------10-12/9---10-12-9-----|
C|-------------------------------------------------------------------x2|
G|-0-0-0-0000-8-10/7-0-0-0-0000-8-10/7-0-0-0-0000-8-10/7----8-10-7-----|
C|-0-0-0-0000--------0-0-0-0000--------0-0-0-0000----------------------|

2:14-2:46
D|---------------------------------------------------------------------|
A|---------------------------------------------------------------------|
F|---------------------------------------------------------------------|
C|-7--7-------10--9---7--7-------10--9---------------------------------|
G|-7--7-x16---10--9---7--7-x16---10--9--x4-------- --------------------|
C|-7--7-------10--9---7--7-------10--9---------------------------------|
   ^  pm      pm  pm  ^  pm      pm  pm
                (hard strum)
2:47-3:18
D|---------------------------------------------------------------------|
A|---------------------------------------------------------------------|
F|---I feel it in my blood now its turning me, It's turning me---------|
C|---------------------------------------------------------------------|
G|-----------------------------x6--------------------------------------|
C|-3-x8--2-x8--10-x8---9-x8--------------------------------------------|

3:19-3:50
D|---------------------------------------------------------------------|
A|-----11-------each-time-gets-slower----------------------------------|
F|-----14--------------------------------------------------------------|
C|----------x8---------------------------------------------------------|
G|-0-0-----------------------------------------------------------------|
C|-0-0-----------------------------------------------------------------|

3:51-4:13
D|---------------------------------------------------------------------|
A|---------------------------------------------------------------------|
F|---------------------------------------------------------------------|
C|--8~--7~---0~--------------------------------------------------------|
G|--8~--7~---0~--------------------------------------------------------|
C|--8~--7~---0~--------------------------------------------------------|

| /  slide up
| \  slide down
| h  hammer-on
| p  pull-off
| ~  vibrato
| +  harmonic
| x  Mute note
============================================================================
Добавлено: 26.04.2012
Другие материалы по этой песне:

Страница создана 26.04.2012
http://primanota.ru/greeley-estates/blue-morning-chords.htm
Привет, Гость.
Предлагаем пройти революционный курс по гитаре.
Подарок от PrimaNota.Ru, забирай!