PrimaNota.ru - самый крупный в мире бесплатный архив песенных текстов, аккордов, табулатур и нот


Greatful Dead - Truckin - таба, видео

Регистрация Запомнить меня
Войти через:  Facebook Google Twitter Vk Yandex Mail.ru

Greatful Dead - Truckin - таба, видео

Печатать
Просмотров: 116
"Truckin"--Grateful Dead    (unplugged)

          --arranged for solo acoustic guitar accompaniment--

Ill try to show the spacing as best as I can but you might have to use your brain just a little...


/=slide up(up as in higher notes)
\=slide down
~=vabrado
p=pull off
u=bend(1/4)
p.m.=palm mute
>=upstroke

Intro
                                        ~~~~~~~~~~~~~~~~~~~~~~~~~~

e|-----10----10----10----10----10----10----10----10----10----10------------|
b|-/12----12----12----12----12----12----12----12----12----12----12-12\10p8-|
g|-------------------------------------------------------------------------|
d|-------------------------------------------------------------------------|
a|-------------------------------------------------------------------------|
e|-------------------------------------------------------------------------|

e|-----------------------------|
b|-----------------------------|
g|-9\-----   <-----------------| sorry I just ran out of room
d|-----------------------------|            ha!
a|-----------------------------|
e|-----------------------------|                    lol all that for one note


Chorus

P.M.------------------------------------------------------------------

e|--------------------------------|-----------------------------------|
b|--------------------------------|-----------------------------------|
g|--------------------------------|--2---2---2---2---2---2-------2----|
d|-2---2-------2---2---2-------2--|--2---2---4---2---2---2---4---2----|
a|-2---2---4---2---2---2---4---2--|--x---x---x---x---x---x---x---x----|
e|-0---0---0---0---0---0---0---0--|--5---5---5---5---5---5---5---5----|

P.M.-----------------------------------------------------------------------

e------------------------------------------------|--------------------------|
b------------------------------------------------|--------------------------|
g-4--4-----4--4--4-----4--2--2-----2--2--2-----2-|--------------------------|
d-4--4--6--4--4--4--6--4--2--2--4--2--2--2--4--2-|---------0--(0)-0---------|
a-x--x--x--x--x--x--x--x--x--x--x--x--x--x--x--x-|--------------------------|
e-7--7--7--7--7--7--7--7--5--5--5--5--5--5--5--5-|-0-0-5/7-----------7\5-3u-|

Bridge
    > > > > >                              ~~~~~~~~ ~~~~~         ~~~~~~~~
e|-----------|---------------------------|----------------------------------|
b|-----------|-2---2---2---2---2--2---2--|----------------------------------|
g|-----------|-2---2---2---2---2--2---2--|----------------------------------|
d|-----------|-2---2---2---2---2--2---2--|----------------------------------|
a|-----------|-x---x---x---x---x--x---x--|----------------------------------|
e|-0-1-2-3-4-|-5---5---5---5---5--5---5--|-5-------3-----0--2-0-2-3h5-------|

e|-----------------|--------------------|-2--2--2--2-|-2-2-2-2-2-2-2-2-2-|
b|-2--2--2--2-x--3-|-3--3--3--3-x--3--3-|-2--2--2--2-|-2-2-2-2-2-2-2-2-2-|
g|-2--2--2--2-x--2-|-2--2--2--2-x--4--4-|-3--3--3--3-|-3-3-3-3-3-3-3-3-3-|
d|-2--2--2--2-x--4-|-4--4--4--4-x--4--4-|-4--4--4--4-|-4-4-4-4-4-4-4-4-4-|
a|-x--x--x--x-x--5-|-5--5--5--5-x--2--2-|-4--4--4--4-|-4-4-4-4-4-4-4-4-4-|
e|-5--5--5--5------|--------------------|-2--2--2--2-|-2-2-2-2-2-2-2-2-2-|


e|-2-2-2-|-5-5-5-5-5-5-5-5-5-5-5-5-|
b|-2-2-2-|-5-5-5-5-5-5-5-5-5-5-5-5-|
g|-3-3-3-|-6-6-6-6-6-6-6-6-6-6-6-6-|
d|-4-4-4-|-7-7-7-7-7-7-7-7-7-7-7-7-|
a|-4-4-4-|-7-7-7-7-7-7-7-7-7-7-7-7-|
e|-2-2-2-|-5-5-5-5-5-5-5-5-5-5-5-5-|



Добавлено: 31.07.2012
Вам также может быть интересно:
Другие материалы по этой песне:
  • Аккорды и текст

Страница создана 31.07.2012
http://primanota.ru/greatful-dead/truckin-chords.htm
Привет, Гость.
Предлагаем пройти революционный курс по гитаре.
Подарок от PrimaNota.Ru, забирай!